  0
SECTION
  2
HEADER
  9
$ACADVER
  1
AC1006
  9
$INSBASE
 10
0.0
 20
0.0
 30
0.0
  9
$EXTMIN
 10
-266.197183
 20
-186.85446
  9
$EXTMAX
 10
266.197183
 20
213.14554
  9
$LIMMIN
 10
-186.0
 20
-140.0
  9
$LIMMAX
 10
186.0
 20
140.0
  9
$ORTHOMODE
 70
     1
  9
$REGENMODE
 70
     0
  9
$FILLMODE
 70
     1
  9
$QTEXTMODE
 70
     0
  9
$MIRRTEXT
 70
     0
  9
$DRAGMODE
 70
     2
  9
$LTSCALE
 40
1.0
  9
$OSMODE
 70
     0
  9
$ATTMODE
 70
     1
  9
$TEXTSIZE
 40
7.0
  9
$TRACEWID
 40
0.05
  9
$TEXTSTYLE
  7
ROMANS
  9
$CLAYER
  8
0
  9
$CELTYPE
  6
BYLAYER
  9
$CECOLOR
 62
   256
  9
$DIMSCALE
 40
1.0
  9
$DIMASZ
 40
0.18
  9
$DIMEXO
 40
0.0625
  9
$DIMDLI
 40
0.38
  9
$DIMRND
 40
0.0
  9
$DIMDLE
 40
0.0
  9
$DIMEXE
 40
0.18
  9
$DIMTP
 40
0.0
  9
$DIMTM
 40
0.0
  9
$DIMTXT
 40
0.18
  9
$DIMCEN
 40
0.09
  9
$DIMTSZ
 40
0.0
  9
$DIMTOL
 70
     0
  9
$DIMLIM
 70
     0
  9
$DIMTIH
 70
     1
  9
$DIMTOH
 70
     1
  9
$DIMSE1
 70
     0
  9
$DIMSE2
 70
     0
  9
$DIMTAD
 70
     0
  9
$DIMZIN
 70
     0
  9
$DIMBLK
  1

  9
$DIMASO
 70
     1
  9
$DIMSHO
 70
     0
  9
$DIMPOST
  1

  9
$DIMAPOST
  1

  9
$DIMALT
 70
     0
  9
$DIMALTD
 70
     2
  9
$DIMALTF
 40
25.4
  9
$DIMLFAC
 40
1.0
  9
$DIMTOFL
 70
     0
  9
$DIMTVP
 40
0.0
  9
$DIMTIX
 70
     0
  9
$DIMSOXD
 70
     0
  9
$DIMSAH
 70
     0
  9
$DIMBLK1
  1

  9
$DIMBLK2
  1

  9
$LUNITS
 70
     2
  9
$LUPREC
 70
     4
  9
$AXISMODE
 70
     0
  9
$AXISUNIT
 10
0.0
 20
0.0
  9
$SKETCHINC
 40
0.1
  9
$FILLETRAD
 40
0.0
  9
$AUNITS
 70
     0
  9
$AUPREC
 70
     4
  9
$MENU
  1
acad
  9
$ELEVATION
 40
0.0
  9
$THICKNESS
 40
0.2
  9
$LIMCHECK
 70
     0
  9
$BLIPMODE
 70
     1
  9
$CHAMFERA
 40
0.0
  9
$CHAMFERB
 40
0.0
  9
$SKPOLY
 70
     0
  9
$TDCREATE
 40
2447322.3978638891
  9
$TDUPDATE
 40
2447470.4723056714
  9
$TDINDWG
 40
0.2147450231
  9
$TDUSRTIMER
 40
0.2147450231
  9
$USRTIMER
 70
     1
  9
$ANGBASE
 50
0.0
  9
$ANGDIR
 70
     0
  9
$PDMODE
 70
     0
  9
$PDSIZE
 40
0.0
  9
$PLINEWID
 40
0.0
  9
$COORDS
 70
     2
  9
$SPLFRAME
 70
     0
  9
$SPLINETYPE
 70
     6
  9
$SPLINESEGS
 70
     8
  9
$ATTDIA
 70
     0
  9
$ATTREQ
 70
     1
  9
$HANDLING
 70
     0
  9
$HANDSEED
  5
0
  9
$SURFTAB1
 70
     6
  9
$SURFTAB2
 70
     6
  9
$SURFTYPE
 70
     8
  9
$SURFU
 70
     6
  9
$SURFV
 70
     6
  9
$FLATLAND
 70
     0
  9
$UCSNAME
  2

  9
$UCSORG
 10
0.0
 20
0.0
 30
0.0
  9
$UCSXDIR
 10
1.0
 20
0.0
 30
0.0
  9
$UCSYDIR
 10
0.0
 20
1.0
 30
0.0
  9
$USERI1
 70
     0
  9
$USERI2
 70
     0
  9
$USERI3
 70
     0
  9
$USERI4
 70
     0
  9
$USERI5
 70
     0
  9
$USERR1
 40
1.0
  9
$USERR2
 40
0.0
  9
$USERR3
 40
0.0
  9
$USERR4
 40
0.0
  9
$USERR5
 40
0.0
  9
$WORLDVIEW
 70
     0
  0
ENDSEC
  0
SECTION
  2
TABLES
  0
TABLE
  2
VPORT
 70
     2
  0
VPORT
  2
*ACTIVE
 70
     0
 10
0.0
 20
0.0
 11
1.0
 21
1.0
 12
59.444526
 22
14.384798
 13
0.0
 23
0.0
 14
5.0
 24
5.0
 15
0.0
 25
0.0
 16
0.0
 26
0.0
 36
1.0
 17
0.0
 27
0.0
 37
0.0
 40
402.478517
 41
1.618182
 42
50.0
 43
0.0
 44
0.0
 50
0.0
 51
0.0
 71
     0
 72
   100
 73
     1
 74
     1
 75
     0
 76
     0
 77
     0
 78
     0
  0
ENDTAB
  0
TABLE
  2
LTYPE
 70
     1
  0
LTYPE
  2
CONTINUOUS
 70
    64
  3
Solid line
 72
    65
 73
     0
 40
0.0
  0
ENDTAB
  0
TABLE
  2
LAYER
 70
     5
  0
LAYER
  2
0
 70
    64
 62
     7
  6
CONTINUOUS
  0
LAYER
  2
LINES
 70
    64
 62
     7
  6
CONTINUOUS
  0
LAYER
  2
SHADES
 70
    64
 62
    10
  6
CONTINUOUS
  0
LAYER
  2
OLDTEXT
 70
    64
 62
     7
  6
CONTINUOUS
  0
LAYER
  2
TEXT
 70
    64
 62
     7
  6
CONTINUOUS
  0
ENDTAB
  0
TABLE
  2
STYLE
 70
     3
  0
STYLE
  2
STANDARD
 70
     0
 40
0.0
 41
1.0
 50
0.0
 71
     0
 42
7.0
  3
txt
  4

  0
STYLE
  2
ROMAND
 70
    64
 40
0.0
 41
1.0
 50
0.0
 71
     0
 42
7.0
  3
romand
  4

  0
STYLE
  2
ROMANS
 70
    64
 40
0.0
 41
1.0
 50
0.0
 71
     0
 42
7.0
  3
romans
  4

  0
ENDTAB
  0
TABLE
  2
VIEW
 70
     2
  0
VIEW
  2
ALL
 70
     0
 40
351.292427
 10
47.341507
 20
0.000007
 41
0.0
 11
0.0
 21
0.0
 31
1.0
 12
0.0
 22
0.0
 32
0.0
 42
50.0
 43
0.0
 44
0.0
 50
0.0
 71
     0
  0
VIEW
  2
A
 70
     0
 40
50.302437
 10
90.222273
 20
17.729554
 41
126.168407
 11
0.0
 21
0.0
 31
1.0
 12
0.0
 22
0.0
 32
0.0
 42
50.0
 43
0.0
 44
0.0
 50
0.0
 71
     0
  0
ENDTAB
  0
TABLE
  2
UCS
 70
     0
  0
ENDTAB
  0
TABLE
  2
DWGMGR
 70
     0
  0
ENDTAB
  0
ENDSEC
  0
SECTION
  2
BLOCKS
  0
ENDSEC
  0
SECTION
  2
ENTITIES
  0
TEXT
  8
TEXT
 39
0.1
 10
-150.357143
 20
182.5
 30
0.0
 40
15.0
  1
The AutoCAD Color Wheel
  7
ROMAND
 72
     4
 11
0.0
 21
190.0
 31
0.0
  0
POLYLINE
  8
OLDTEXT
 39
0.1
 66
     1
 10
0.0
 20
0.0
 30
0.0
 40
1.0
 41
1.0
  0
VERTEX
  8
OLDTEXT
 39
0.1
 10
-149.765258
 20
174.647887
 30
0.0
  0
VERTEX
  8
OLDTEXT
 39
0.1
 10
151.643192
 20
174.647887
 30
0.0
  0
SEQEND
  8
OLDTEXT
  0
TEXT
  8
TEXT
 62
     1
 39
0.1
 10
-245.237041
 20
66.551694
 30
0.0
 40
8.0
  1
1
  7
ROMANS
 72
     4
 11
-241.998946
 21
70.551694
 31
0.0
  0
TEXT
  8
TEXT
 62
     2
 39
0.1
 10
-245.80847
 20
49.408837
 30
0.0
 40
8.0
  1
2
  7
ROMANS
 72
     4
 11
-241.998946
 21
53.408837
 31
0.0
  0
TEXT
  8
TEXT
 62
     3
 39
0.1
 10
-245.80847
 20
32.26598
 30
0.0
 40
8.0
  1
3
  7
ROMANS
 72
     4
 11
-241.998946
 21
36.26598
 31
0.0
  0
TEXT
  8
TEXT
 62
     4
 39
0.1
 10
-245.998946
 20
15.123123
 30
0.0
 40
8.0
  1
4
  7
ROMANS
 72
     4
 11
-241.998946
 21
19.123123
 31
0.0
  0
TEXT
  8
TEXT
 62
     5
 39
0.1
 10
-245.80847
 20
-2.019735
 30
0.0
 40
8.0
  1
5
  7
ROMANS
 72
     4
 11
-241.998946
 21
1.980265
 31
0.0
  0
TEXT
  8
TEXT
 62
     6
 39
0.1
 10
-245.998946
 20
-19.162592
 30
0.0
 40
8.0
  1
6
  7
ROMANS
 72
     4
 11
-241.998946
 21
-15.162592
 31
0.0
  0
TEXT
  8
TEXT
 62
     7
 39
0.1
 10
-245.80847
 20
-36.305449
 30
0.0
 40
8.0
  1
7
  7
ROMANS
 72
     4
 11
-241.998946
 21
-32.305449
 31
0.0
  0
TEXT
  8
TEXT
 62
     8
 39
0.1
 10
-245.80847
 20
-53.448306
 30
0.0
 40
8.0
  1
8
  7
ROMANS
 72
     4
 11
-241.998946
 21
-49.448306
 31
0.0
  0
TEXT
  8
TEXT
 62
     9
 39
0.1
 10
-245.617994
 20
-70.591163
 30
0.0
 40
8.0
  1
9
  7
ROMANS
 72
     4
 11
-241.998946
 21
-66.591163
 31
0.0
  0
SOLID
  8
SHADES
 62
     1
 39
0.1
 10
-227.357758
 20
63.368076
 30
0.0
 11
-193.072044
 21
63.368076
 31
0.0
 12
-227.357758
 22
74.796648
 32
0.0
 13
-193.072044
 23
74.796648
 33
0.0
  0
SOLID
  8
SHADES
 62
     2
 39
0.1
 10
-227.357758
 20
46.225219
 30
0.0
 11
-193.072044
 21
46.225219
 31
0.0
 12
-227.357758
 22
57.653791
 32
0.0
 13
-193.072044
 23
57.653791
 33
0.0
  0
SOLID
  8
SHADES
 62
     3
 39
0.1
 10
-227.357758
 20
29.082362
 30
0.0
 11
-193.072044
 21
29.082362
 31
0.0
 12
-227.357758
 22
40.510934
 32
0.0
 13
-193.072044
 23
40.510934
 33
0.0
  0
SOLID
  8
SHADES
 62
     4
 39
0.1
 10
-227.357758
 20
11.939505
 30
0.0
 11
-193.072044
 21
11.939505
 31
0.0
 12
-227.357758
 22
23.368076
 32
0.0
 13
-193.072044
 23
23.368076
 33
0.0
  0
SOLID
  8
SHADES
 62
     5
 39
0.1
 10
-227.357758
 20
-5.203352
 30
0.0
 11
-193.072044
 21
-5.203352
 31
0.0
 12
-227.357758
 22
6.225219
 32
0.0
 13
-193.072044
 23
6.225219
 33
0.0
  0
SOLID
  8
SHADES
 62
     6
 39
0.1
 10
-227.357758
 20
-22.346209
 30
0.0
 11
-193.072044
 21
-22.346209
 31
0.0
 12
-227.357758
 22
-10.917638
 32
0.0
 13
-193.072044
 23
-10.917638
 33
0.0
  0
SOLID
  8
SHADES
 62
     7
 39
0.1
 10
-227.357758
 20
-39.489066
 30
0.0
 11
-193.072044
 21
-39.489066
 31
0.0
 12
-227.357758
 22
-28.060495
 32
0.0
 13
-193.072044
 23
-28.060495
 33
0.0
  0
SOLID
  8
SHADES
 62
     8
 39
0.1
 10
-227.357758
 20
-56.631924
 30
0.0
 11
-193.072044
 21
-56.631924
 31
0.0
 12
-227.357758
 22
-45.203352
 32
0.0
 13
-193.072044
 23
-45.203352
 33
0.0
  0
SOLID
  8
SHADES
 62
     9
 39
0.1
 10
-227.357758
 20
-73.774781
 30
0.0
 11
-193.072044
 21
-73.774781
 31
0.0
 12
-227.357758
 22
-62.346209
 32
0.0
 13
-193.072044
 23
-62.346209
 33
0.0
  0
SOLID
  8
SHADES
 62
    18
 39
0.1
 10
40.0
 20
-0.000031
 30
0.0
 11
50.07948
 21
-0.000038
 31
0.0
 12
38.743334
 22
9.947566
 32
0.0
 13
48.50615
 23
12.454223
 33
0.0
  0
SOLID
  8
SHADES
 62
    16
 39
0.1
 10
50.07948
 20
-0.000038
 30
0.0
 11
60.158959
 21
-0.000046
 31
0.0
 12
48.50615
 22
12.454223
 32
0.0
 13
58.268967
 23
14.96088
 33
0.0
  0
SOLID
  8
SHADES
 62
    14
 39
0.1
 10
60.158959
 20
-0.000046
 30
0.0
 11
70.238439
 21
-0.000054
 31
0.0
 12
58.268967
 22
14.96088
 32
0.0
 13
68.031783
 23
17.467537
 33
0.0
  0
SOLID
  8
SHADES
 62
    12
 39
0.1
 10
70.238439
 20
-0.000054
 30
0.0
 11
80.317919
 21
-0.000061
 31
0.0
 12
68.031783
 22
17.467537
 32
0.0
 13
77.794599
 23
19.974195
 33
0.0
  0
SOLID
  8
SHADES
 39
0.1
 10
80.317919
 20
-0.000061
 30
0.0
 11
90.397399
 21
-0.000069
 31
0.0
 12
77.794599
 22
19.974195
 32
0.0
 13
87.557415
 23
22.480852
 33
0.0
  0
SOLID
  8
SHADES
 62
    11
 39
0.1
 10
90.397399
 20
-0.000069
 30
0.0
 11
100.476878
 21
-0.000077
 31
0.0
 12
87.557415
 22
22.480852
 32
0.0
 13
97.320231
 23
24.987509
 33
0.0
  0
SOLID
  8
SHADES
 62
    13
 39
0.1
 10
100.476878
 20
-0.000077
 30
0.0
 11
110.556358
 21
-0.000085
 31
0.0
 12
97.320231
 22
24.987509
 32
0.0
 13
107.083048
 23
27.494166
 33
0.0
  0
SOLID
  8
SHADES
 62
    15
 39
0.1
 10
110.556358
 20
-0.000085
 30
0.0
 11
120.635838
 21
-0.000092
 31
0.0
 12
107.083048
 22
27.494166
 32
0.0
 13
116.845864
 23
30.000823
 33
0.0
  0
SOLID
  8
SHADES
 62
    17
 39
0.1
 10
120.635838
 20
-0.000092
 30
0.0
 11
130.715317
 21
-0.0001
 31
0.0
 12
116.845864
 22
30.000823
 32
0.0
 13
126.60868
 23
32.507481
 33
0.0
  0
SOLID
  8
SHADES
 62
    19
 39
0.1
 10
130.715317
 20
-0.0001
 30
0.0
 11
140.794797
 21
-0.000108
 31
0.0
 12
126.60868
 22
32.507481
 32
0.0
 13
136.371496
 23
35.014138
 33
0.0
  0
SOLID
  8
SHADES
 62
    28
 39
0.1
 10
38.743334
 20
9.947566
 30
0.0
 11
48.50615
 21
12.454223
 31
0.0
 12
35.052282
 22
19.27012
 32
0.0
 13
43.885001
 23
24.12594
 33
0.0
  0
SOLID
  8
SHADES
 62
    26
 39
0.1
 10
48.50615
 20
12.454223
 30
0.0
 11
58.268967
 21
14.96088
 31
0.0
 12
43.885001
 22
24.12594
 32
0.0
 13
52.71772
 23
28.981759
 33
0.0
  0
SOLID
  8
SHADES
 62
    24
 39
0.1
 10
58.268967
 20
14.96088
 30
0.0
 11
68.031783
 21
17.467537
 31
0.0
 12
52.71772
 22
28.981759
 32
0.0
 13
61.550439
 23
33.837579
 33
0.0
  0
SOLID
  8
SHADES
 62
    22
 39
0.1
 10
68.031783
 20
17.467537
 30
0.0
 11
77.794599
 21
19.974195
 31
0.0
 12
61.550439
 22
33.837579
 32
0.0
 13
70.383158
 23
38.693399
 33
0.0
  0
SOLID
  8
SHADES
 62
    20
 39
0.1
 10
77.794599
 20
19.974195
 30
0.0
 11
87.557415
 21
22.480852
 31
0.0
 12
70.383158
 22
38.693399
 32
0.0
 13
79.215878
 23
43.549218
 33
0.0
  0
SOLID
  8
SHADES
 62
    21
 39
0.1
 10
87.557415
 20
22.480852
 30
0.0
 11
97.320231
 21
24.987509
 31
0.0
 12
79.215878
 22
43.549218
 32
0.0
 13
88.048597
 23
48.405038
 33
0.0
  0
SOLID
  8
SHADES
 62
    23
 39
0.1
 10
97.320231
 20
24.987509
 30
0.0
 11
107.083048
 21
27.494166
 31
0.0
 12
88.048597
 22
48.405038
 32
0.0
 13
96.881316
 23
53.260858
 33
0.0
  0
SOLID
  8
SHADES
 62
    25
 39
0.1
 10
107.083048
 20
27.494166
 30
0.0
 11
116.845864
 21
30.000823
 31
0.0
 12
96.881316
 22
53.260858
 32
0.0
 13
105.714035
 23
58.116677
 33
0.0
  0
SOLID
  8
SHADES
 62
    27
 39
0.1
 10
116.845864
 20
30.000823
 30
0.0
 11
126.60868
 21
32.507481
 31
0.0
 12
105.714035
 22
58.116677
 32
0.0
 13
114.546754
 23
62.972497
 33
0.0
  0
SOLID
  8
SHADES
 62
    29
 39
0.1
 10
126.60868
 20
32.507481
 30
0.0
 11
136.371496
 21
35.014138
 31
0.0
 12
114.546754
 22
62.972497
 32
0.0
 13
123.379473
 23
67.828316
 33
0.0
  0
SOLID
  8
SHADES
 62
    38
 39
0.1
 10
35.052282
 20
19.27012
 30
0.0
 11
43.885001
 21
24.12594
 31
0.0
 12
29.158766
 22
27.381862
 32
0.0
 13
36.506396
 23
34.281735
 33
0.0
  0
SOLID
  8
SHADES
 62
    36
 39
0.1
 10
43.885001
 20
24.12594
 30
0.0
 11
52.71772
 21
28.981759
 31
0.0
 12
36.506396
 22
34.281735
 32
0.0
 13
43.854026
 23
41.181608
 33
0.0
  0
SOLID
  8
SHADES
 62
    34
 39
0.1
 10
52.71772
 20
28.981759
 30
0.0
 11
61.550439
 21
33.837579
 31
0.0
 12
43.854026
 22
41.181608
 32
0.0
 13
51.201655
 23
48.081481
 33
0.0
  0
SOLID
  8
SHADES
 62
    32
 39
0.1
 10
61.550439
 20
33.837579
 30
0.0
 11
70.383158
 21
38.693399
 31
0.0
 12
51.201655
 22
48.081481
 32
0.0
 13
58.549285
 23
54.981354
 33
0.0
  0
SOLID
  8
SHADES
 62
    30
 39
0.1
 10
70.383158
 20
38.693399
 30
0.0
 11
79.215878
 21
43.549218
 31
0.0
 12
58.549285
 22
54.981354
 32
0.0
 13
65.896915
 23
61.881227
 33
0.0
  0
SOLID
  8
SHADES
 62
    31
 39
0.1
 10
79.215878
 20
43.549218
 30
0.0
 11
88.048597
 21
48.405038
 31
0.0
 12
65.896915
 22
61.881227
 32
0.0
 13
73.244545
 23
68.7811
 33
0.0
  0
SOLID
  8
SHADES
 62
    33
 39
0.1
 10
88.048597
 20
48.405038
 30
0.0
 11
96.881316
 21
53.260858
 31
0.0
 12
73.244545
 22
68.7811
 32
0.0
 13
80.592174
 23
75.680973
 33
0.0
  0
SOLID
  8
SHADES
 62
    35
 39
0.1
 10
96.881316
 20
53.260858
 30
0.0
 11
105.714035
 21
58.116677
 31
0.0
 12
80.592174
 22
75.680973
 32
0.0
 13
87.939804
 23
82.580846
 33
0.0
  0
SOLID
  8
SHADES
 62
    37
 39
0.1
 10
105.714035
 20
58.116677
 30
0.0
 11
114.546754
 21
62.972497
 31
0.0
 12
87.939804
 22
82.580846
 32
0.0
 13
95.287434
 23
89.480719
 33
0.0
  0
SOLID
  8
SHADES
 62
    39
 39
0.1
 10
114.546754
 20
62.972497
 30
0.0
 11
123.379473
 21
67.828316
 31
0.0
 12
95.287434
 22
89.480719
 32
0.0
 13
102.635064
 23
96.380592
 33
0.0
  0
SOLID
  8
SHADES
 62
    48
 39
0.1
 10
29.158766
 20
27.381862
 30
0.0
 11
36.506396
 21
34.281735
 31
0.0
 12
21.433098
 22
33.773101
 32
0.0
 13
26.833959
 23
42.283483
 33
0.0
  0
SOLID
  8
SHADES
 62
    46
 39
0.1
 10
36.506396
 20
34.281735
 30
0.0
 11
43.854026
 21
41.181608
 31
0.0
 12
26.833959
 22
42.283483
 32
0.0
 13
32.234821
 23
50.793865
 33
0.0
  0
SOLID
  8
SHADES
 62
    44
 39
0.1
 10
43.854026
 20
41.181608
 30
0.0
 11
51.201655
 21
48.081481
 31
0.0
 12
32.234821
 22
50.793865
 32
0.0
 13
37.635683
 23
59.304247
 33
0.0
  0
SOLID
  8
SHADES
 62
    42
 39
0.1
 10
51.201655
 20
48.081481
 30
0.0
 11
58.549285
 21
54.981354
 31
0.0
 12
37.635683
 22
59.304247
 32
0.0
 13
43.036545
 23
67.814629
 33
0.0
  0
SOLID
  8
SHADES
 62
    40
 39
0.1
 10
58.549285
 20
54.981354
 30
0.0
 11
65.896915
 21
61.881227
 31
0.0
 12
43.036545
 22
67.814629
 32
0.0
 13
48.437407
 23
76.325011
 33
0.0
  0
SOLID
  8
SHADES
 62
    41
 39
0.1
 10
65.896915
 20
61.881227
 30
0.0
 11
73.244545
 21
68.7811
 31
0.0
 12
48.437407
 22
76.325011
 32
0.0
 13
53.838269
 23
84.835393
 33
0.0
  0
SOLID
  8
SHADES
 62
    43
 39
0.1
 10
73.244545
 20
68.7811
 30
0.0
 11
80.592174
 21
75.680973
 31
0.0
 12
53.838269
 22
84.835393
 32
0.0
 13
59.23913
 23
93.345775
 33
0.0
  0
SOLID
  8
SHADES
 62
    45
 39
0.1
 10
80.592174
 20
75.680973
 30
0.0
 11
87.939804
 21
82.580846
 31
0.0
 12
59.23913
 22
93.345775
 32
0.0
 13
64.639992
 23
101.856157
 33
0.0
  0
SOLID
  8
SHADES
 62
    47
 39
0.1
 10
87.939804
 20
82.580846
 30
0.0
 11
95.287434
 21
89.480719
 31
0.0
 12
64.639992
 22
101.856157
 32
0.0
 13
70.040854
 23
110.366539
 33
0.0
  0
SOLID
  8
SHADES
 62
    49
 39
0.1
 10
95.287434
 20
89.480719
 30
0.0
 11
102.635064
 21
96.380592
 31
0.0
 12
70.040854
 22
110.366539
 32
0.0
 13
75.441716
 23
118.876921
 33
0.0
  0
SOLID
  8
SHADES
 62
    58
 39
0.1
 10
21.433098
 20
33.773101
 30
0.0
 11
26.833959
 21
42.283483
 31
0.0
 12
12.360709
 22
38.042251
 32
0.0
 13
15.475447
 23
47.628404
 33
0.0
  0
SOLID
  8
SHADES
 62
    56
 39
0.1
 10
26.833959
 20
42.283483
 30
0.0
 11
32.234821
 21
50.793865
 31
0.0
 12
15.475447
 22
47.628404
 32
0.0
 13
18.590185
 23
57.214556
 33
0.0
  0
SOLID
  8
SHADES
 62
    54
 39
0.1
 10
32.234821
 20
50.793865
 30
0.0
 11
37.635683
 21
59.304247
 31
0.0
 12
18.590185
 22
57.214556
 32
0.0
 13
21.704922
 23
66.800709
 33
0.0
  0
SOLID
  8
SHADES
 62
    52
 39
0.1
 10
37.635683
 20
59.304247
 30
0.0
 11
43.036545
 21
67.814629
 31
0.0
 12
21.704922
 22
66.800709
 32
0.0
 13
24.81966
 23
76.386861
 33
0.0
  0
SOLID
  8
SHADES
 62
    50
 39
0.1
 10
43.036545
 20
67.814629
 30
0.0
 11
48.437407
 21
76.325011
 31
0.0
 12
24.81966
 22
76.386861
 32
0.0
 13
27.934398
 23
85.973014
 33
0.0
  0
SOLID
  8
SHADES
 62
    51
 39
0.1
 10
48.437407
 20
76.325011
 30
0.0
 11
53.838269
 21
84.835393
 31
0.0
 12
27.934398
 22
85.973014
 32
0.0
 13
31.049136
 23
95.559166
 33
0.0
  0
SOLID
  8
SHADES
 62
    53
 39
0.1
 10
53.838269
 20
84.835393
 30
0.0
 11
59.23913
 21
93.345775
 31
0.0
 12
31.049136
 22
95.559166
 32
0.0
 13
34.163874
 23
105.145319
 33
0.0
  0
SOLID
  8
SHADES
 62
    55
 39
0.1
 10
59.23913
 20
93.345775
 30
0.0
 11
64.639992
 21
101.856157
 31
0.0
 12
34.163874
 22
105.145319
 32
0.0
 13
37.278612
 23
114.731471
 33
0.0
  0
SOLID
  8
SHADES
 62
    57
 39
0.1
 10
64.639992
 20
101.856157
 30
0.0
 11
70.040854
 21
110.366539
 31
0.0
 12
37.278612
 22
114.731471
 32
0.0
 13
40.39335
 23
124.317623
 33
0.0
  0
SOLID
  8
SHADES
 62
    59
 39
0.1
 10
70.040854
 20
110.366539
 30
0.0
 11
75.441716
 21
118.876921
 31
0.0
 12
40.39335
 22
124.317623
 32
0.0
 13
43.508087
 23
133.903776
 33
0.0
  0
SOLID
  8
SHADES
 62
    68
 39
0.1
 10
12.360709
 20
38.042251
 30
0.0
 11
15.475447
 21
47.628404
 31
0.0
 12
2.511651
 22
39.921067
 32
0.0
 13
3.144555
 23
49.980657
 33
0.0
  0
SOLID
  8
SHADES
 62
    66
 39
0.1
 10
15.475447
 20
47.628404
 30
0.0
 11
18.590185
 21
57.214556
 31
0.0
 12
3.144555
 22
49.980657
 32
0.0
 13
3.777458
 23
60.040247
 33
0.0
  0
SOLID
  8
SHADES
 62
    64
 39
0.1
 10
18.590185
 20
57.214556
 30
0.0
 11
21.704922
 21
66.800709
 31
0.0
 12
3.777458
 22
60.040247
 32
0.0
 13
4.410362
 23
70.099836
 33
0.0
  0
SOLID
  8
SHADES
 62
    62
 39
0.1
 10
21.704922
 20
66.800709
 30
0.0
 11
24.81966
 21
76.386861
 31
0.0
 12
4.410362
 22
70.099836
 32
0.0
 13
5.043265
 23
80.159426
 33
0.0
  0
SOLID
  8
SHADES
 62
    60
 39
0.1
 10
24.81966
 20
76.386861
 30
0.0
 11
27.934398
 21
85.973014
 31
0.0
 12
5.043265
 22
80.159426
 32
0.0
 13
5.676169
 23
90.219016
 33
0.0
  0
SOLID
  8
SHADES
 62
    61
 39
0.1
 10
27.934398
 20
85.973014
 30
0.0
 11
31.049136
 21
95.559166
 31
0.0
 12
5.676169
 22
90.219016
 32
0.0
 13
6.309072
 23
100.278605
 33
0.0
  0
SOLID
  8
SHADES
 62
    63
 39
0.1
 10
31.049136
 20
95.559166
 30
0.0
 11
34.163874
 21
105.145319
 31
0.0
 12
6.309072
 22
100.278605
 32
0.0
 13
6.941976
 23
110.338195
 33
0.0
  0
SOLID
  8
SHADES
 62
    65
 39
0.1
 10
34.163874
 20
105.145319
 30
0.0
 11
37.278612
 21
114.731471
 31
0.0
 12
6.941976
 22
110.338195
 32
0.0
 13
7.574879
 23
120.397785
 33
0.0
  0
SOLID
  8
SHADES
 62
    67
 39
0.1
 10
37.278612
 20
114.731471
 30
0.0
 11
40.39335
 21
124.317623
 31
0.0
 12
7.574879
 22
120.397785
 32
0.0
 13
8.207782
 23
130.457374
 33
0.0
  0
SOLID
  8
SHADES
 62
    69
 39
0.1
 10
40.39335
 20
124.317623
 30
0.0
 11
43.508087
 21
133.903776
 31
0.0
 12
8.207782
 22
130.457374
 32
0.0
 13
8.840686
 23
140.516964
 33
0.0
  0
SOLID
  8
SHADES
 62
    78
 39
0.1
 10
2.511651
 20
39.921067
 30
0.0
 11
3.144555
 21
49.980657
 31
0.0
 12
-7.495223
 22
39.291496
 32
0.0
 13
-9.383921
 23
49.192442
 33
0.0
  0
SOLID
  8
SHADES
 62
    76
 39
0.1
 10
3.144555
 20
49.980657
 30
0.0
 11
3.777458
 21
60.040247
 31
0.0
 12
-9.383921
 22
49.192442
 32
0.0
 13
-11.27262
 23
59.093387
 33
0.0
  0
SOLID
  8
SHADES
 62
    74
 39
0.1
 10
3.777458
 20
60.040247
 30
0.0
 11
4.410362
 21
70.099836
 31
0.0
 12
-11.27262
 22
59.093387
 32
0.0
 13
-13.161318
 23
68.994333
 33
0.0
  0
SOLID
  8
SHADES
 62
    72
 39
0.1
 10
4.410362
 20
70.099836
 30
0.0
 11
5.043265
 21
80.159426
 31
0.0
 12
-13.161318
 22
68.994333
 32
0.0
 13
-15.050017
 23
78.895279
 33
0.0
  0
SOLID
  8
SHADES
 62
    70
 39
0.1
 10
5.043265
 20
80.159426
 30
0.0
 11
5.676169
 21
90.219016
 31
0.0
 12
-15.050017
 22
78.895279
 32
0.0
 13
-16.938715
 23
88.796225
 33
0.0
  0
SOLID
  8
SHADES
 62
    71
 39
0.1
 10
5.676169
 20
90.219016
 30
0.0
 11
6.309072
 21
100.278605
 31
0.0
 12
-16.938715
 22
88.796225
 32
0.0
 13
-18.827414
 23
98.697171
 33
0.0
  0
SOLID
  8
SHADES
 62
    73
 39
0.1
 10
6.309072
 20
100.278605
 30
0.0
 11
6.941976
 21
110.338195
 31
0.0
 12
-18.827414
 22
98.697171
 32
0.0
 13
-20.716113
 23
108.598117
 33
0.0
  0
SOLID
  8
SHADES
 62
    75
 39
0.1
 10
6.941976
 20
110.338195
 30
0.0
 11
7.574879
 21
120.397785
 31
0.0
 12
-20.716113
 22
108.598117
 32
0.0
 13
-22.604811
 23
118.499063
 33
0.0
  0
SOLID
  8
SHADES
 62
    77
 39
0.1
 10
7.574879
 20
120.397785
 30
0.0
 11
8.207782
 21
130.457374
 31
0.0
 12
-22.604811
 22
118.499063
 32
0.0
 13
-24.49351
 23
128.400008
 33
0.0
  0
SOLID
  8
SHADES
 62
    79
 39
0.1
 10
8.207782
 20
130.457374
 30
0.0
 11
8.840686
 21
140.516964
 31
0.0
 12
-24.49351
 22
128.400008
 32
0.0
 13
-26.382208
 23
138.300954
 33
0.0
  0
SOLID
  8
SHADES
 62
    88
 39
0.1
 10
-7.495223
 20
39.291496
 30
0.0
 11
-9.383921
 21
49.192442
 31
0.0
 12
-17.031144
 22
36.193095
 32
0.0
 13
-21.322771
 23
45.313284
 33
0.0
  0
SOLID
  8
SHADES
 62
    86
 39
0.1
 10
-9.383921
 20
49.192442
 30
0.0
 11
-11.27262
 21
59.093387
 31
0.0
 12
-21.322771
 22
45.313284
 32
0.0
 13
-25.614397
 23
54.433474
 33
0.0
  0
SOLID
  8
SHADES
 62
    84
 39
0.1
 10
-11.27262
 20
59.093387
 30
0.0
 11
-13.161318
 21
68.994333
 31
0.0
 12
-25.614397
 22
54.433474
 32
0.0
 13
-29.906024
 23
63.553663
 33
0.0
  0
SOLID
  8
SHADES
 62
    82
 39
0.1
 10
-13.161318
 20
68.994333
 30
0.0
 11
-15.050017
 21
78.895279
 31
0.0
 12
-29.906024
 22
63.553663
 32
0.0
 13
-34.197651
 23
72.673852
 33
0.0
  0
SOLID
  8
SHADES
 62
    80
 39
0.1
 10
-15.050017
 20
78.895279
 30
0.0
 11
-16.938715
 21
88.796225
 31
0.0
 12
-34.197651
 22
72.673852
 32
0.0
 13
-38.489278
 23
81.794041
 33
0.0
  0
SOLID
  8
SHADES
 62
    81
 39
0.1
 10
-16.938715
 20
88.796225
 30
0.0
 11
-18.827414
 21
98.697171
 31
0.0
 12
-38.489278
 22
81.794041
 32
0.0
 13
-42.780905
 23
90.91423
 33
0.0
  0
SOLID
  8
SHADES
 62
    83
 39
0.1
 10
-18.827414
 20
98.697171
 30
0.0
 11
-20.716113
 21
108.598117
 31
0.0
 12
-42.780905
 22
90.91423
 32
0.0
 13
-47.072531
 23
100.03442
 33
0.0
  0
SOLID
  8
SHADES
 62
    85
 39
0.1
 10
-20.716113
 20
108.598117
 30
0.0
 11
-22.604811
 21
118.499063
 31
0.0
 12
-47.072531
 22
100.03442
 32
0.0
 13
-51.364158
 23
109.154609
 33
0.0
  0
SOLID
  8
SHADES
 62
    87
 39
0.1
 10
-22.604811
 20
118.499063
 30
0.0
 11
-24.49351
 21
128.400008
 31
0.0
 12
-51.364158
 22
109.154609
 32
0.0
 13
-55.655785
 23
118.274798
 33
0.0
  0
SOLID
  8
SHADES
 62
    89
 39
0.1
 10
-24.49351
 20
128.400008
 30
0.0
 11
-26.382208
 21
138.300954
 31
0.0
 12
-55.655785
 22
118.274798
 32
0.0
 13
-59.947412
 23
127.394987
 33
0.0
  0
SOLID
  8
SHADES
 62
    98
 39
0.1
 10
-17.031144
 20
36.193095
 30
0.0
 11
-21.322771
 21
45.313284
 31
0.0
 12
-25.496936
 22
30.820549
 32
0.0
 13
-31.921832
 23
38.586927
 33
0.0
  0
SOLID
  8
SHADES
 62
    96
 39
0.1
 10
-21.322771
 20
45.313284
 30
0.0
 11
-25.614397
 21
54.433474
 31
0.0
 12
-31.921832
 22
38.586927
 32
0.0
 13
-38.346728
 23
46.353304
 33
0.0
  0
SOLID
  8
SHADES
 62
    94
 39
0.1
 10
-25.614397
 20
54.433474
 30
0.0
 11
-29.906024
 21
63.553663
 31
0.0
 12
-38.346728
 22
46.353304
 32
0.0
 13
-44.771625
 23
54.119682
 33
0.0
  0
SOLID
  8
SHADES
 62
    92
 39
0.1
 10
-29.906024
 20
63.553663
 30
0.0
 11
-34.197651
 21
72.673852
 31
0.0
 12
-44.771625
 22
54.119682
 32
0.0
 13
-51.196521
 23
61.886059
 33
0.0
  0
SOLID
  8
SHADES
 62
    90
 39
0.1
 10
-34.197651
 20
72.673852
 30
0.0
 11
-38.489278
 21
81.794041
 31
0.0
 12
-51.196521
 22
61.886059
 32
0.0
 13
-57.621417
 23
69.652437
 33
0.0
  0
SOLID
  8
SHADES
 62
    91
 39
0.1
 10
-38.489278
 20
81.794041
 30
0.0
 11
-42.780905
 21
90.91423
 31
0.0
 12
-57.621417
 22
69.652437
 32
0.0
 13
-64.046313
 23
77.418814
 33
0.0
  0
SOLID
  8
SHADES
 62
    93
 39
0.1
 10
-42.780905
 20
90.91423
 30
0.0
 11
-47.072531
 21
100.03442
 31
0.0
 12
-64.046313
 22
77.418814
 32
0.0
 13
-70.47121
 23
85.185192
 33
0.0
  0
SOLID
  8
SHADES
 62
    95
 39
0.1
 10
-47.072531
 20
100.03442
 30
0.0
 11
-51.364158
 21
109.154609
 31
0.0
 12
-70.47121
 22
85.185192
 32
0.0
 13
-76.896106
 23
92.951569
 33
0.0
  0
SOLID
  8
SHADES
 62
    97
 39
0.1
 10
-51.364158
 20
109.154609
 30
0.0
 11
-55.655785
 21
118.274798
 31
0.0
 12
-76.896106
 22
92.951569
 32
0.0
 13
-83.321002
 23
100.717947
 33
0.0
  0
SOLID
  8
SHADES
 62
    99
 39
0.1
 10
-55.655785
 20
118.274798
 30
0.0
 11
-59.947412
 21
127.394987
 31
0.0
 12
-83.321002
 22
100.717947
 32
0.0
 13
-89.745898
 23
108.484324
 33
0.0
  0
SOLID
  8
SHADES
 62
   108
 39
0.1
 10
-25.496936
 20
30.820549
 30
0.0
 11
-31.921832
 21
38.586927
 31
0.0
 12
-32.360662
 22
23.511435
 32
0.0
 13
-40.515128
 23
29.436011
 33
0.0
  0
SOLID
  8
SHADES
 62
   106
 39
0.1
 10
-31.921832
 20
38.586927
 30
0.0
 11
-38.346728
 21
46.353304
 31
0.0
 12
-40.515128
 22
29.436011
 32
0.0
 13
-48.669593
 23
35.360586
 33
0.0
  0
SOLID
  8
SHADES
 62
   104
 39
0.1
 10
-38.346728
 20
46.353304
 30
0.0
 11
-44.771625
 21
54.119682
 31
0.0
 12
-48.669593
 22
35.360586
 32
0.0
 13
-56.824059
 23
41.285162
 33
0.0
  0
SOLID
  8
SHADES
 62
   102
 39
0.1
 10
-44.771625
 20
54.119682
 30
0.0
 11
-51.196521
 21
61.886059
 31
0.0
 12
-56.824059
 22
41.285162
 32
0.0
 13
-64.978525
 23
47.209738
 33
0.0
  0
SOLID
  8
SHADES
 62
   100
 39
0.1
 10
-51.196521
 20
61.886059
 30
0.0
 11
-57.621417
 21
69.652437
 31
0.0
 12
-64.978525
 22
47.209738
 32
0.0
 13
-73.132991
 23
53.134314
 33
0.0
  0
SOLID
  8
SHADES
 62
   101
 39
0.1
 10
-57.621417
 20
69.652437
 30
0.0
 11
-64.046313
 21
77.418814
 31
0.0
 12
-73.132991
 22
53.134314
 32
0.0
 13
-81.287457
 23
59.058889
 33
0.0
  0
SOLID
  8
SHADES
 62
   103
 39
0.1
 10
-64.046313
 20
77.418814
 30
0.0
 11
-70.47121
 21
85.185192
 31
0.0
 12
-81.287457
 22
59.058889
 32
0.0
 13
-89.441923
 23
64.983465
 33
0.0
  0
SOLID
  8
SHADES
 62
   105
 39
0.1
 10
-70.47121
 20
85.185192
 30
0.0
 11
-76.896106
 21
92.951569
 31
0.0
 12
-89.441923
 22
64.983465
 32
0.0
 13
-97.596389
 23
70.908041
 33
0.0
  0
SOLID
  8
SHADES
 62
   107
 39
0.1
 10
-76.896106
 20
92.951569
 30
0.0
 11
-83.321002
 21
100.717947
 31
0.0
 12
-97.596389
 22
70.908041
 32
0.0
 13
-105.750854
 23
76.832617
 33
0.0
  0
SOLID
  8
SHADES
 62
   109
 39
0.1
 10
-83.321002
 20
100.717947
 30
0.0
 11
-89.745898
 21
108.484324
 31
0.0
 12
-105.750854
 22
76.832617
 32
0.0
 13
-113.90532
 23
82.757192
 33
0.0
  0
SOLID
  8
SHADES
 62
   118
 39
0.1
 10
-32.360662
 20
23.511435
 30
0.0
 11
-40.515128
 21
29.436011
 31
0.0
 12
-37.191048
 22
14.725011
 32
0.0
 13
-46.562709
 23
18.435522
 33
0.0
  0
SOLID
  8
SHADES
 62
   116
 39
0.1
 10
-40.515128
 20
29.436011
 30
0.0
 11
-48.669593
 21
35.360586
 31
0.0
 12
-46.562709
 22
18.435522
 32
0.0
 13
-55.934369
 23
22.146033
 33
0.0
  0
SOLID
  8
SHADES
 62
   114
 39
0.1
 10
-48.669593
 20
35.360586
 30
0.0
 11
-56.824059
 21
41.285162
 31
0.0
 12
-55.934369
 22
22.146033
 32
0.0
 13
-65.306029
 23
25.856544
 33
0.0
  0
SOLID
  8
SHADES
 62
   112
 39
0.1
 10
-56.824059
 20
41.285162
 30
0.0
 11
-64.978525
 21
47.209738
 31
0.0
 12
-65.306029
 22
25.856544
 32
0.0
 13
-74.67769
 23
29.567055
 33
0.0
  0
SOLID
  8
SHADES
 62
   110
 39
0.1
 10
-64.978525
 20
47.209738
 30
0.0
 11
-73.132991
 21
53.134314
 31
0.0
 12
-74.67769
 22
29.567055
 32
0.0
 13
-84.04935
 23
33.277566
 33
0.0
  0
SOLID
  8
SHADES
 62
   111
 39
0.1
 10
-73.132991
 20
53.134314
 30
0.0
 11
-81.287457
 21
59.058889
 31
0.0
 12
-84.04935
 22
33.277566
 32
0.0
 13
-93.42101
 23
36.988077
 33
0.0
  0
SOLID
  8
SHADES
 62
   113
 39
0.1
 10
-81.287457
 20
59.058889
 30
0.0
 11
-89.441923
 21
64.983465
 31
0.0
 12
-93.42101
 22
36.988077
 32
0.0
 13
-102.792671
 23
40.698588
 33
0.0
  0
SOLID
  8
SHADES
 62
   115
 39
0.1
 10
-89.441923
 20
64.983465
 30
0.0
 11
-97.596389
 21
70.908041
 31
0.0
 12
-102.792671
 22
40.698588
 32
0.0
 13
-112.164331
 23
44.4091
 33
0.0
  0
SOLID
  8
SHADES
 62
   117
 39
0.1
 10
-97.596389
 20
70.908041
 30
0.0
 11
-105.750854
 21
76.832617
 31
0.0
 12
-112.164331
 22
44.4091
 32
0.0
 13
-121.535992
 23
48.119611
 33
0.0
  0
SOLID
  8
SHADES
 62
   119
 39
0.1
 10
-105.750854
 20
76.832617
 30
0.0
 11
-113.90532
 21
82.757192
 31
0.0
 12
-121.535992
 22
48.119611
 32
0.0
 13
-130.907652
 23
51.830122
 33
0.0
  0
SOLID
  8
SHADES
 62
   128
 39
0.1
 10
-37.191048
 20
14.725011
 30
0.0
 11
-46.562709
 21
18.435522
 31
0.0
 12
-39.684584
 22
5.01336
 32
0.0
 13
-49.684583
 23
6.276661
 33
0.0
  0
SOLID
  8
SHADES
 62
   126
 39
0.1
 10
-46.562709
 20
18.435522
 30
0.0
 11
-55.934369
 21
22.146033
 31
0.0
 12
-49.684583
 22
6.276661
 32
0.0
 13
-59.684582
 23
7.539963
 33
0.0
  0
SOLID
  8
SHADES
 62
   124
 39
0.1
 10
-55.934369
 20
22.146033
 30
0.0
 11
-65.306029
 21
25.856544
 31
0.0
 12
-59.684582
 22
7.539963
 32
0.0
 13
-69.684581
 23
8.803264
 33
0.0
  0
SOLID
  8
SHADES
 62
   122
 39
0.1
 10
-65.306029
 20
25.856544
 30
0.0
 11
-74.67769
 21
29.567055
 31
0.0
 12
-69.684581
 22
8.803264
 32
0.0
 13
-79.68458
 23
10.066565
 33
0.0
  0
SOLID
  8
SHADES
 62
   120
 39
0.1
 10
-74.67769
 20
29.567055
 30
0.0
 11
-84.04935
 21
33.277566
 31
0.0
 12
-79.68458
 22
10.066565
 32
0.0
 13
-89.684579
 23
11.329867
 33
0.0
  0
SOLID
  8
SHADES
 62
   121
 39
0.1
 10
-84.04935
 20
33.277566
 30
0.0
 11
-93.42101
 21
36.988077
 31
0.0
 12
-89.684579
 22
11.329867
 32
0.0
 13
-99.684578
 23
12.593168
 33
0.0
  0
SOLID
  8
SHADES
 62
   123
 39
0.1
 10
-93.42101
 20
36.988077
 30
0.0
 11
-102.792671
 21
40.698588
 31
0.0
 12
-99.684578
 22
12.593168
 32
0.0
 13
-109.684577
 23
13.85647
 33
0.0
  0
SOLID
  8
SHADES
 62
   125
 39
0.1
 10
-102.792671
 20
40.698588
 30
0.0
 11
-112.164331
 21
44.4091
 31
0.0
 12
-109.684577
 22
13.85647
 32
0.0
 13
-119.684576
 23
15.119771
 33
0.0
  0
SOLID
  8
SHADES
 62
   127
 39
0.1
 10
-112.164331
 20
44.4091
 30
0.0
 11
-121.535992
 21
48.119611
 31
0.0
 12
-119.684576
 22
15.119771
 32
0.0
 13
-129.684576
 23
16.383073
 33
0.0
  0
SOLID
  8
SHADES
 62
   129
 39
0.1
 10
-121.535992
 20
48.119611
 30
0.0
 11
-130.907652
 21
51.830122
 31
0.0
 12
-129.684576
 22
16.383073
 32
0.0
 13
-139.684575
 23
17.646374
 33
0.0
  0
SOLID
  8
SHADES
 62
   138
 39
0.1
 10
-39.684584
 20
5.01336
 30
0.0
 11
-49.684583
 21
6.276661
 31
0.0
 12
-39.684592
 22
-5.013299
 32
0.0
 13
-49.684593
 23
-6.276585
 33
0.0
  0
SOLID
  8
SHADES
 62
   136
 39
0.1
 10
-49.684583
 20
6.276661
 30
0.0
 11
-59.684582
 21
7.539963
 31
0.0
 12
-49.684593
 22
-6.276585
 32
0.0
 13
-59.684594
 23
-7.539871
 33
0.0
  0
SOLID
  8
SHADES
 62
   134
 39
0.1
 10
-59.684582
 20
7.539963
 30
0.0
 11
-69.684581
 21
8.803264
 31
0.0
 12
-59.684594
 22
-7.539871
 32
0.0
 13
-69.684595
 23
-8.803157
 33
0.0
  0
SOLID
  8
SHADES
 62
   132
 39
0.1
 10
-69.684581
 20
8.803264
 30
0.0
 11
-79.68458
 21
10.066565
 31
0.0
 12
-69.684595
 22
-8.803157
 32
0.0
 13
-79.684596
 23
-10.066444
 33
0.0
  0
SOLID
  8
SHADES
 62
   120
 39
0.1
 10
-79.68458
 20
10.066565
 30
0.0
 11
-89.684579
 21
11.329867
 31
0.0
 12
-79.684596
 22
-10.066444
 32
0.0
 13
-89.684597
 23
-11.32973
 33
0.0
  0
SOLID
  8
SHADES
 62
   131
 39
0.1
 10
-89.684579
 20
11.329867
 30
0.0
 11
-99.684578
 21
12.593168
 31
0.0
 12
-89.684597
 22
-11.32973
 32
0.0
 13
-99.684598
 23
-12.593016
 33
0.0
  0
SOLID
  8
SHADES
 62
   133
 39
0.1
 10
-99.684578
 20
12.593168
 30
0.0
 11
-109.684577
 21
13.85647
 31
0.0
 12
-99.684598
 22
-12.593016
 32
0.0
 13
-109.684599
 23
-13.856302
 33
0.0
  0
SOLID
  8
SHADES
 62
   135
 39
0.1
 10
-109.684577
 20
13.85647
 30
0.0
 11
-119.684576
 21
15.119771
 31
0.0
 12
-109.684599
 22
-13.856302
 32
0.0
 13
-119.6846
 23
-15.119588
 33
0.0
  0
SOLID
  8
SHADES
 62
   137
 39
0.1
 10
-119.684576
 20
15.119771
 30
0.0
 11
-129.684576
 21
16.383073
 31
0.0
 12
-119.6846
 22
-15.119588
 32
0.0
 13
-129.684601
 23
-16.382874
 33
0.0
  0
SOLID
  8
SHADES
 62
   139
 39
0.1
 10
-129.684576
 20
16.383073
 30
0.0
 11
-139.684575
 21
17.646374
 31
0.0
 12
-129.684601
 22
-16.382874
 32
0.0
 13
-139.684602
 23
-17.64616
 33
0.0
  0
SOLID
  8
SHADES
 62
   148
 39
0.1
 10
-39.684592
 20
-5.013299
 30
0.0
 11
-49.684593
 21
-6.276585
 31
0.0
 12
-37.191071
 22
-14.724954
 32
0.0
 13
-46.562737
 23
-18.43545
 33
0.0
  0
SOLID
  8
SHADES
 62
   146
 39
0.1
 10
-49.684593
 20
-6.276585
 30
0.0
 11
-59.684594
 21
-7.539871
 31
0.0
 12
-46.562737
 22
-18.43545
 32
0.0
 13
-55.934403
 23
-22.145947
 33
0.0
  0
SOLID
  8
SHADES
 62
   144
 39
0.1
 10
-59.684594
 20
-7.539871
 30
0.0
 11
-69.684595
 21
-8.803157
 31
0.0
 12
-55.934403
 22
-22.145947
 32
0.0
 13
-65.306069
 23
-25.856444
 33
0.0
  0
SOLID
  8
SHADES
 62
   142
 39
0.1
 10
-69.684595
 20
-8.803157
 30
0.0
 11
-79.684596
 21
-10.066444
 31
0.0
 12
-65.306069
 22
-25.856444
 32
0.0
 13
-74.677735
 23
-29.566941
 33
0.0
  0
SOLID
  8
SHADES
 62
   140
 39
0.1
 10
-79.684596
 20
-10.066444
 30
0.0
 11
-89.684597
 21
-11.32973
 31
0.0
 12
-74.677735
 22
-29.566941
 32
0.0
 13
-84.049401
 23
-33.277438
 33
0.0
  0
SOLID
  8
SHADES
 62
   141
 39
0.1
 10
-89.684597
 20
-11.32973
 30
0.0
 11
-99.684598
 21
-12.593016
 31
0.0
 12
-84.049401
 22
-33.277438
 32
0.0
 13
-93.421067
 23
-36.987934
 33
0.0
  0
SOLID
  8
SHADES
 62
   143
 39
0.1
 10
-99.684598
 20
-12.593016
 30
0.0
 11
-109.684599
 21
-13.856302
 31
0.0
 12
-93.421067
 22
-36.987934
 32
0.0
 13
-102.792733
 23
-40.698431
 33
0.0
  0
SOLID
  8
SHADES
 62
   145
 39
0.1
 10
-109.684599
 20
-13.856302
 30
0.0
 11
-119.6846
 21
-15.119588
 31
0.0
 12
-102.792733
 22
-40.698431
 32
0.0
 13
-112.164399
 23
-44.408928
 33
0.0
  0
SOLID
  8
SHADES
 62
   147
 39
0.1
 10
-119.6846
 20
-15.119588
 30
0.0
 11
-129.684601
 21
-16.382874
 31
0.0
 12
-112.164399
 22
-44.408928
 32
0.0
 13
-121.536065
 23
-48.119425
 33
0.0
  0
SOLID
  8
SHADES
 62
   149
 39
0.1
 10
-129.684601
 20
-16.382874
 30
0.0
 11
-139.684602
 21
-17.64616
 31
0.0
 12
-121.536065
 22
-48.119425
 32
0.0
 13
-130.907731
 23
-51.829922
 33
0.0
  0
SOLID
  8
SHADES
 62
   158
 39
0.1
 10
-37.191071
 20
-14.724954
 30
0.0
 11
-46.562737
 21
-18.43545
 31
0.0
 12
-32.360698
 22
-23.511385
 32
0.0
 13
-40.515173
 23
-29.435949
 33
0.0
  0
SOLID
  8
SHADES
 62
   156
 39
0.1
 10
-46.562737
 20
-18.43545
 30
0.0
 11
-55.934403
 21
-22.145947
 31
0.0
 12
-40.515173
 22
-29.435949
 32
0.0
 13
-48.669648
 23
-35.360512
 33
0.0
  0
SOLID
  8
SHADES
 62
   154
 39
0.1
 10
-55.934403
 20
-22.145947
 30
0.0
 11
-65.306069
 21
-25.856444
 31
0.0
 12
-48.669648
 22
-35.360512
 32
0.0
 13
-56.824122
 23
-41.285075
 33
0.0
  0
SOLID
  8
SHADES
 62
   152
 39
0.1
 10
-65.306069
 20
-25.856444
 30
0.0
 11
-74.677735
 21
-29.566941
 31
0.0
 12
-56.824122
 22
-41.285075
 32
0.0
 13
-64.978597
 23
-47.209638
 33
0.0
  0
SOLID
  8
SHADES
 62
   150
 39
0.1
 10
-74.677735
 20
-29.566941
 30
0.0
 11
-84.049401
 21
-33.277438
 31
0.0
 12
-64.978597
 22
-47.209638
 32
0.0
 13
-73.133072
 23
-53.134202
 33
0.0
  0
SOLID
  8
SHADES
 62
   151
 39
0.1
 10
-84.049401
 20
-33.277438
 30
0.0
 11
-93.421067
 21
-36.987934
 31
0.0
 12
-73.133072
 22
-53.134202
 32
0.0
 13
-81.287547
 23
-59.058765
 33
0.0
  0
SOLID
  8
SHADES
 62
   153
 39
0.1
 10
-93.421067
 20
-36.987934
 30
0.0
 11
-102.792733
 21
-40.698431
 31
0.0
 12
-81.287547
 22
-59.058765
 32
0.0
 13
-89.442022
 23
-64.983328
 33
0.0
  0
SOLID
  8
SHADES
 62
   155
 39
0.1
 10
-102.792733
 20
-40.698431
 30
0.0
 11
-112.164399
 21
-44.408928
 31
0.0
 12
-89.442022
 22
-64.983328
 32
0.0
 13
-97.596497
 23
-70.907892
 33
0.0
  0
SOLID
  8
SHADES
 62
   157
 39
0.1
 10
-112.164399
 20
-44.408928
 30
0.0
 11
-121.536065
 21
-48.119425
 31
0.0
 12
-97.596497
 22
-70.907892
 32
0.0
 13
-105.750972
 23
-76.832455
 33
0.0
  0
SOLID
  8
SHADES
 62
   159
 39
0.1
 10
-121.536065
 20
-48.119425
 30
0.0
 11
-130.907731
 21
-51.829922
 31
0.0
 12
-105.750972
 22
-76.832455
 32
0.0
 13
-113.905447
 23
-82.757018
 33
0.0
  0
SOLID
  8
SHADES
 62
   168
 39
0.1
 10
-32.360698
 20
-23.511385
 30
0.0
 11
-40.515173
 21
-29.435949
 31
0.0
 12
-25.496983
 22
-30.82051
 32
0.0
 13
-31.921891
 23
-38.586878
 33
0.0
  0
SOLID
  8
SHADES
 62
   166
 39
0.1
 10
-40.515173
 20
-29.435949
 30
0.0
 11
-48.669648
 21
-35.360512
 31
0.0
 12
-31.921891
 22
-38.586878
 32
0.0
 13
-38.346799
 23
-46.353246
 33
0.0
  0
SOLID
  8
SHADES
 62
   164
 39
0.1
 10
-48.669648
 20
-35.360512
 30
0.0
 11
-56.824122
 21
-41.285075
 31
0.0
 12
-38.346799
 22
-46.353246
 32
0.0
 13
-44.771707
 23
-54.119613
 33
0.0
  0
SOLID
  8
SHADES
 62
   162
 39
0.1
 10
-56.824122
 20
-41.285075
 30
0.0
 11
-64.978597
 21
-47.209638
 31
0.0
 12
-44.771707
 22
-54.119613
 32
0.0
 13
-51.196616
 23
-61.885981
 33
0.0
  0
SOLID
  8
SHADES
 62
   160
 39
0.1
 10
-64.978597
 20
-47.209638
 30
0.0
 11
-73.133072
 21
-53.134202
 31
0.0
 12
-51.196616
 22
-61.885981
 32
0.0
 13
-57.621524
 23
-69.652349
 33
0.0
  0
SOLID
  8
SHADES
 62
   161
 39
0.1
 10
-73.133072
 20
-53.134202
 30
0.0
 11
-81.287547
 21
-59.058765
 31
0.0
 12
-57.621524
 22
-69.652349
 32
0.0
 13
-64.046432
 23
-77.418716
 33
0.0
  0
SOLID
  8
SHADES
 62
   163
 39
0.1
 10
-81.287547
 20
-59.058765
 30
0.0
 11
-89.442022
 21
-64.983328
 31
0.0
 12
-64.046432
 22
-77.418716
 32
0.0
 13
-70.47134
 23
-85.185084
 33
0.0
  0
SOLID
  8
SHADES
 62
   165
 39
0.1
 10
-89.442022
 20
-64.983328
 30
0.0
 11
-97.596497
 21
-70.907892
 31
0.0
 12
-70.47134
 22
-85.185084
 32
0.0
 13
-76.896248
 23
-92.951452
 33
0.0
  0
SOLID
  8
SHADES
 62
   167
 39
0.1
 10
-97.596497
 20
-70.907892
 30
0.0
 11
-105.750972
 21
-76.832455
 31
0.0
 12
-76.896248
 22
-92.951452
 32
0.0
 13
-83.321156
 23
-100.717819
 33
0.0
  0
SOLID
  8
SHADES
 62
   169
 39
0.1
 10
-105.750972
 20
-76.832455
 30
0.0
 11
-113.905447
 21
-82.757018
 31
0.0
 12
-83.321156
 22
-100.717819
 32
0.0
 13
-89.746064
 23
-108.484187
 33
0.0
  0
SOLID
  8
SHADES
 62
   178
 39
0.1
 10
-25.496983
 20
-30.82051
 30
0.0
 11
-31.921891
 21
-38.586878
 31
0.0
 12
-17.031199
 22
-36.193069
 32
0.0
 13
-21.32284
 23
-45.313252
 33
0.0
  0
SOLID
  8
SHADES
 62
   176
 39
0.1
 10
-31.921891
 20
-38.586878
 30
0.0
 11
-38.346799
 21
-46.353246
 31
0.0
 12
-21.32284
 22
-45.313252
 32
0.0
 13
-25.614481
 23
-54.433434
 33
0.0
  0
SOLID
  8
SHADES
 62
   174
 39
0.1
 10
-38.346799
 20
-46.353246
 30
0.0
 11
-44.771707
 21
-54.119613
 31
0.0
 12
-25.614481
 22
-54.433434
 32
0.0
 13
-29.906121
 23
-63.553617
 33
0.0
  0
SOLID
  8
SHADES
 62
   172
 39
0.1
 10
-44.771707
 20
-54.119613
 30
0.0
 11
-51.196616
 21
-61.885981
 31
0.0
 12
-29.906121
 22
-63.553617
 32
0.0
 13
-34.197762
 23
-72.6738
 33
0.0
  0
SOLID
  8
SHADES
 62
   170
 39
0.1
 10
-51.196616
 20
-61.885981
 30
0.0
 11
-57.621524
 21
-69.652349
 31
0.0
 12
-34.197762
 22
-72.6738
 32
0.0
 13
-38.489403
 23
-81.793982
 33
0.0
  0
SOLID
  8
SHADES
 62
   171
 39
0.1
 10
-57.621524
 20
-69.652349
 30
0.0
 11
-64.046432
 21
-77.418716
 31
0.0
 12
-38.489403
 22
-81.793982
 32
0.0
 13
-42.781044
 23
-90.914165
 33
0.0
  0
SOLID
  8
SHADES
 62
   173
 39
0.1
 10
-64.046432
 20
-77.418716
 30
0.0
 11
-70.47134
 21
-85.185084
 31
0.0
 12
-42.781044
 22
-90.914165
 32
0.0
 13
-47.072684
 23
-100.034347
 33
0.0
  0
SOLID
  8
SHADES
 62
   175
 39
0.1
 10
-70.47134
 20
-85.185084
 30
0.0
 11
-76.896248
 21
-92.951452
 31
0.0
 12
-47.072684
 22
-100.034347
 32
0.0
 13
-51.364325
 23
-109.15453
 33
0.0
  0
SOLID
  8
SHADES
 62
   177
 39
0.1
 10
-76.896248
 20
-92.951452
 30
0.0
 11
-83.321156
 21
-100.717819
 31
0.0
 12
-51.364325
 22
-109.15453
 32
0.0
 13
-55.655966
 23
-118.274713
 33
0.0
  0
SOLID
  8
SHADES
 62
   179
 39
0.1
 10
-83.321156
 20
-100.717819
 30
0.0
 11
-89.746064
 21
-108.484187
 31
0.0
 12
-55.655966
 22
-118.274713
 32
0.0
 13
-59.947606
 23
-127.394895
 33
0.0
  0
SOLID
  8
SHADES
 62
   188
 39
0.1
 10
-17.031199
 20
-36.193069
 30
0.0
 11
-21.32284
 21
-45.313252
 31
0.0
 12
-7.495283
 22
-39.291484
 32
0.0
 13
-9.383996
 23
-49.192427
 33
0.0
  0
SOLID
  8
SHADES
 62
   186
 39
0.1
 10
-21.32284
 20
-45.313252
 30
0.0
 11
-25.614481
 21
-54.433434
 31
0.0
 12
-9.383996
 22
-49.192427
 32
0.0
 13
-11.27271
 23
-59.09337
 33
0.0
  0
SOLID
  8
SHADES
 62
   184
 39
0.1
 10
-25.614481
 20
-54.433434
 30
0.0
 11
-29.906121
 21
-63.553617
 31
0.0
 12
-11.27271
 22
-59.09337
 32
0.0
 13
-13.161424
 23
-68.994313
 33
0.0
  0
SOLID
  8
SHADES
 62
   182
 39
0.1
 10
-29.906121
 20
-63.553617
 30
0.0
 11
-34.197762
 21
-72.6738
 31
0.0
 12
-13.161424
 22
-68.994313
 32
0.0
 13
-15.050138
 23
-78.895256
 33
0.0
  0
SOLID
  8
SHADES
 62
   180
 39
0.1
 10
-34.197762
 20
-72.6738
 30
0.0
 11
-38.489403
 21
-81.793982
 31
0.0
 12
-15.050138
 22
-78.895256
 32
0.0
 13
-16.938851
 23
-88.796199
 33
0.0
  0
SOLID
  8
SHADES
 62
   181
 39
0.1
 10
-38.489403
 20
-81.793982
 30
0.0
 11
-42.781044
 21
-90.914165
 31
0.0
 12
-16.938851
 22
-88.796199
 32
0.0
 13
-18.827565
 23
-98.697142
 33
0.0
  0
SOLID
  8
SHADES
 62
   183
 39
0.1
 10
-42.781044
 20
-90.914165
 30
0.0
 11
-47.072684
 21
-100.034347
 31
0.0
 12
-18.827565
 22
-98.697142
 32
0.0
 13
-20.716279
 23
-108.598085
 33
0.0
  0
SOLID
  8
SHADES
 62
   185
 39
0.1
 10
-47.072684
 20
-100.034347
 30
0.0
 11
-51.364325
 21
-109.15453
 31
0.0
 12
-20.716279
 22
-108.598085
 32
0.0
 13
-22.604992
 23
-118.499028
 33
0.0
  0
SOLID
  8
SHADES
 62
   187
 39
0.1
 10
-51.364325
 20
-109.15453
 30
0.0
 11
-55.655966
 21
-118.274713
 31
0.0
 12
-22.604992
 22
-118.499028
 32
0.0
 13
-24.493706
 23
-128.399971
 33
0.0
  0
SOLID
  8
SHADES
 62
   189
 39
0.1
 10
-55.655966
 20
-118.274713
 30
0.0
 11
-59.947606
 21
-127.394895
 31
0.0
 12
-24.493706
 22
-128.399971
 32
0.0
 13
-26.38242
 23
-138.300914
 33
0.0
  0
SOLID
  8
SHADES
 62
   198
 39
0.1
 10
-7.495283
 20
-39.291484
 30
0.0
 11
-9.383996
 21
-49.192427
 31
0.0
 12
2.51159
 22
-39.921071
 32
0.0
 13
3.144478
 23
-49.980662
 33
0.0
  0
SOLID
  8
SHADES
 62
   196
 39
0.1
 10
-9.383996
 20
-49.192427
 30
0.0
 11
-11.27271
 21
-59.09337
 31
0.0
 12
3.144478
 22
-49.980662
 32
0.0
 13
3.777366
 23
-60.040252
 33
0.0
  0
SOLID
  8
SHADES
 62
   194
 39
0.1
 10
-11.27271
 20
-59.09337
 30
0.0
 11
-13.161424
 21
-68.994313
 31
0.0
 12
3.777366
 22
-60.040252
 32
0.0
 13
4.410254
 23
-70.099843
 33
0.0
  0
SOLID
  8
SHADES
 62
   192
 39
0.1
 10
-13.161424
 20
-68.994313
 30
0.0
 11
-15.050138
 21
-78.895256
 31
0.0
 12
4.410254
 22
-70.099843
 32
0.0
 13
5.043143
 23
-80.159434
 33
0.0
  0
SOLID
  8
SHADES
 62
   190
 39
0.1
 10
-15.050138
 20
-78.895256
 30
0.0
 11
-16.938851
 21
-88.796199
 31
0.0
 12
5.043143
 22
-80.159434
 32
0.0
 13
5.676031
 23
-90.219024
 33
0.0
  0
SOLID
  8
SHADES
 62
   191
 39
0.1
 10
-16.938851
 20
-88.796199
 30
0.0
 11
-18.827565
 21
-98.697142
 31
0.0
 12
5.676031
 22
-90.219024
 32
0.0
 13
6.308919
 23
-100.278615
 33
0.0
  0
SOLID
  8
SHADES
 62
   193
 39
0.1
 10
-18.827565
 20
-98.697142
 30
0.0
 11
-20.716279
 21
-108.598085
 31
0.0
 12
6.308919
 22
-100.278615
 32
0.0
 13
6.941807
 23
-110.338206
 33
0.0
  0
SOLID
  8
SHADES
 62
   195
 39
0.1
 10
-20.716279
 20
-108.598085
 30
0.0
 11
-22.604992
 21
-118.499028
 31
0.0
 12
6.941807
 22
-110.338206
 32
0.0
 13
7.574695
 23
-120.397796
 33
0.0
  0
SOLID
  8
SHADES
 62
   197
 39
0.1
 10
-22.604992
 20
-118.499028
 30
0.0
 11
-24.493706
 21
-128.399971
 31
0.0
 12
7.574695
 22
-120.397796
 32
0.0
 13
8.207583
 23
-130.457387
 33
0.0
  0
SOLID
  8
SHADES
 62
   199
 39
0.1
 10
-24.493706
 20
-128.399971
 30
0.0
 11
-26.38242
 21
-138.300914
 31
0.0
 12
8.207583
 22
-130.457387
 32
0.0
 13
8.840471
 23
-140.516977
 33
0.0
  0
SOLID
  8
SHADES
 62
   208
 39
0.1
 10
2.51159
 20
-39.921071
 30
0.0
 11
3.144478
 21
-49.980662
 31
0.0
 12
12.360651
 22
-38.04227
 32
0.0
 13
15.475374
 23
-47.628427
 33
0.0
  0
SOLID
  8
SHADES
 62
   206
 39
0.1
 10
3.144478
 20
-49.980662
 30
0.0
 11
3.777366
 21
-60.040252
 31
0.0
 12
15.475374
 22
-47.628427
 32
0.0
 13
18.590097
 23
-57.214585
 33
0.0
  0
SOLID
  8
SHADES
 62
   204
 39
0.1
 10
3.777366
 20
-60.040252
 30
0.0
 11
4.410254
 21
-70.099843
 31
0.0
 12
18.590097
 22
-57.214585
 32
0.0
 13
21.70482
 23
-66.800742
 33
0.0
  0
SOLID
  8
SHADES
 62
   202
 39
0.1
 10
4.410254
 20
-70.099843
 30
0.0
 11
5.043143
 21
-80.159434
 31
0.0
 12
21.70482
 22
-66.800742
 32
0.0
 13
24.819543
 23
-76.386899
 33
0.0
  0
SOLID
  8
SHADES
 62
   200
 39
0.1
 10
5.043143
 20
-80.159434
 30
0.0
 11
5.676031
 21
-90.219024
 31
0.0
 12
24.819543
 22
-76.386899
 32
0.0
 13
27.934267
 23
-85.973056
 33
0.0
  0
SOLID
  8
SHADES
 62
   201
 39
0.1
 10
5.676031
 20
-90.219024
 30
0.0
 11
6.308919
 21
-100.278615
 31
0.0
 12
27.934267
 22
-85.973056
 32
0.0
 13
31.04899
 23
-95.559214
 33
0.0
  0
SOLID
  8
SHADES
 62
   203
 39
0.1
 10
6.308919
 20
-100.278615
 30
0.0
 11
6.941807
 21
-110.338206
 31
0.0
 12
31.04899
 22
-95.559214
 32
0.0
 13
34.163713
 23
-105.145371
 33
0.0
  0
SOLID
  8
SHADES
 62
   205
 39
0.1
 10
6.941807
 20
-110.338206
 30
0.0
 11
7.574695
 21
-120.397796
 31
0.0
 12
34.163713
 22
-105.145371
 32
0.0
 13
37.278436
 23
-114.731528
 33
0.0
  0
SOLID
  8
SHADES
 62
   207
 39
0.1
 10
7.574695
 20
-120.397796
 30
0.0
 11
8.207583
 21
-130.457387
 31
0.0
 12
37.278436
 22
-114.731528
 32
0.0
 13
40.393159
 23
-124.317685
 33
0.0
  0
SOLID
  8
SHADES
 62
   209
 39
0.1
 10
8.207583
 20
-130.457387
 30
0.0
 11
8.840471
 21
-140.516977
 31
0.0
 12
40.393159
 22
-124.317685
 32
0.0
 13
43.507883
 23
-133.903843
 33
0.0
  0
SOLID
  8
SHADES
 62
   218
 39
0.1
 10
12.360651
 20
-38.04227
 30
0.0
 11
15.475374
 21
-47.628427
 31
0.0
 12
21.433046
 22
-33.773133
 32
0.0
 13
26.833895
 23
-42.283524
 33
0.0
  0
SOLID
  8
SHADES
 62
   216
 39
0.1
 10
15.475374
 20
-47.628427
 30
0.0
 11
18.590097
 21
-57.214585
 31
0.0
 12
26.833895
 22
-42.283524
 32
0.0
 13
32.234744
 23
-50.793914
 33
0.0
  0
SOLID
  8
SHADES
 62
   214
 39
0.1
 10
18.590097
 20
-57.214585
 30
0.0
 11
21.70482
 21
-66.800742
 31
0.0
 12
32.234744
 22
-50.793914
 32
0.0
 13
37.635592
 23
-59.304304
 33
0.0
  0
SOLID
  8
SHADES
 62
   212
 39
0.1
 10
21.70482
 20
-66.800742
 30
0.0
 11
24.819543
 21
-76.386899
 31
0.0
 12
37.635592
 22
-59.304304
 32
0.0
 13
43.036441
 23
-67.814695
 33
0.0
  0
SOLID
  8
SHADES
 62
   210
 39
0.1
 10
24.819543
 20
-76.386899
 30
0.0
 11
27.934267
 21
-85.973056
 31
0.0
 12
43.036441
 22
-67.814695
 32
0.0
 13
48.43729
 23
-76.325085
 33
0.0
  0
SOLID
  8
SHADES
 62
   211
 39
0.1
 10
27.934267
 20
-85.973056
 30
0.0
 11
31.04899
 21
-95.559214
 31
0.0
 12
48.43729
 22
-76.325085
 32
0.0
 13
53.838139
 23
-84.835475
 33
0.0
  0
SOLID
  8
SHADES
 62
   213
 39
0.1
 10
31.04899
 20
-95.559214
 30
0.0
 11
34.163713
 21
-105.145371
 31
0.0
 12
53.838139
 22
-84.835475
 32
0.0
 13
59.238988
 23
-93.345866
 33
0.0
  0
SOLID
  8
SHADES
 62
   215
 39
0.1
 10
34.163713
 20
-105.145371
 30
0.0
 11
37.278436
 21
-114.731528
 31
0.0
 12
59.238988
 22
-93.345866
 32
0.0
 13
64.639836
 23
-101.856256
 33
0.0
  0
SOLID
  8
SHADES
 62
   217
 39
0.1
 10
37.278436
 20
-114.731528
 30
0.0
 11
40.393159
 21
-124.317685
 31
0.0
 12
64.639836
 22
-101.856256
 32
0.0
 13
70.040685
 23
-110.366646
 33
0.0
  0
SOLID
  8
SHADES
 62
   219
 39
0.1
 10
40.393159
 20
-124.317685
 30
0.0
 11
43.507883
 21
-133.903843
 31
0.0
 12
70.040685
 22
-110.366646
 32
0.0
 13
75.441534
 23
-118.877037
 33
0.0
  0
SOLID
  8
SHADES
 62
   228
 39
0.1
 10
21.433046
 20
-33.773133
 30
0.0
 11
26.833895
 21
-42.283524
 31
0.0
 12
29.158724
 22
-27.381907
 32
0.0
 13
36.506343
 23
-34.281791
 33
0.0
  0
SOLID
  8
SHADES
 62
   226
 39
0.1
 10
26.833895
 20
-42.283524
 30
0.0
 11
32.234744
 21
-50.793914
 31
0.0
 12
36.506343
 22
-34.281791
 32
0.0
 13
43.853963
 23
-41.181675
 33
0.0
  0
SOLID
  8
SHADES
 62
   224
 39
0.1
 10
32.234744
 20
-50.793914
 30
0.0
 11
37.635592
 21
-59.304304
 31
0.0
 12
43.853963
 22
-41.181675
 32
0.0
 13
51.201582
 23
-48.081559
 33
0.0
  0
SOLID
  8
SHADES
 62
   222
 39
0.1
 10
37.635592
 20
-59.304304
 30
0.0
 11
43.036441
 21
-67.814695
 31
0.0
 12
51.201582
 22
-48.081559
 32
0.0
 13
58.549201
 23
-54.981444
 33
0.0
  0
SOLID
  8
SHADES
 62
   220
 39
0.1
 10
43.036441
 20
-67.814695
 30
0.0
 11
48.43729
 21
-76.325085
 31
0.0
 12
58.549201
 22
-54.981444
 32
0.0
 13
65.89682
 23
-61.881328
 33
0.0
  0
SOLID
  8
SHADES
 62
   221
 39
0.1
 10
48.43729
 20
-76.325085
 30
0.0
 11
53.838139
 21
-84.835475
 31
0.0
 12
65.89682
 22
-61.881328
 32
0.0
 13
73.244439
 23
-68.781212
 33
0.0
  0
SOLID
  8
SHADES
 62
   223
 39
0.1
 10
53.838139
 20
-84.835475
 30
0.0
 11
59.238988
 21
-93.345866
 31
0.0
 12
73.244439
 22
-68.781212
 32
0.0
 13
80.592059
 23
-75.681097
 33
0.0
  0
SOLID
  8
SHADES
 62
   225
 39
0.1
 10
59.238988
 20
-93.345866
 30
0.0
 11
64.639836
 21
-101.856256
 31
0.0
 12
80.592059
 22
-75.681097
 32
0.0
 13
87.939678
 23
-82.580981
 33
0.0
  0
SOLID
  8
SHADES
 62
   227
 39
0.1
 10
64.639836
 20
-101.856256
 30
0.0
 11
70.040685
 21
-110.366646
 31
0.0
 12
87.939678
 22
-82.580981
 32
0.0
 13
95.287297
 23
-89.480865
 33
0.0
  0
SOLID
  8
SHADES
 62
   229
 39
0.1
 10
70.040685
 20
-110.366646
 30
0.0
 11
75.441534
 21
-118.877037
 31
0.0
 12
95.287297
 22
-89.480865
 32
0.0
 13
102.634916
 23
-96.380749
 33
0.0
  0
SOLID
  8
SHADES
 62
   238
 39
0.1
 10
29.158724
 20
-27.381907
 30
0.0
 11
36.506343
 21
-34.281791
 31
0.0
 12
35.052252
 22
-19.270174
 32
0.0
 13
43.884964
 23
-24.126007
 33
0.0
  0
SOLID
  8
SHADES
 62
   236
 39
0.1
 10
36.506343
 20
-34.281791
 30
0.0
 11
43.853963
 21
-41.181675
 31
0.0
 12
43.884964
 22
-24.126007
 32
0.0
 13
52.717676
 23
-28.98184
 33
0.0
  0
SOLID
  8
SHADES
 62
   234
 39
0.1
 10
43.853963
 20
-41.181675
 30
0.0
 11
51.201582
 21
-48.081559
 31
0.0
 12
52.717676
 22
-28.98184
 32
0.0
 13
61.550388
 23
-33.837673
 33
0.0
  0
SOLID
  8
SHADES
 62
   232
 39
0.1
 10
51.201582
 20
-48.081559
 30
0.0
 11
58.549201
 21
-54.981444
 31
0.0
 12
61.550388
 22
-33.837673
 32
0.0
 13
70.383099
 23
-38.693506
 33
0.0
  0
SOLID
  8
SHADES
 62
   230
 39
0.1
 10
58.549201
 20
-54.981444
 30
0.0
 11
65.89682
 21
-61.881328
 31
0.0
 12
70.383099
 22
-38.693506
 32
0.0
 13
79.215811
 23
-43.549339
 33
0.0
  0
SOLID
  8
SHADES
 62
   231
 39
0.1
 10
65.89682
 20
-61.881328
 30
0.0
 11
73.244439
 21
-68.781212
 31
0.0
 12
79.215811
 22
-43.549339
 32
0.0
 13
88.048523
 23
-48.405173
 33
0.0
  0
SOLID
  8
SHADES
 62
   233
 39
0.1
 10
73.244439
 20
-68.781212
 30
0.0
 11
80.592059
 21
-75.681097
 31
0.0
 12
88.048523
 22
-48.405173
 32
0.0
 13
96.881234
 23
-53.261006
 33
0.0
  0
SOLID
  8
SHADES
 62
   235
 39
0.1
 10
80.592059
 20
-75.681097
 30
0.0
 11
87.939678
 21
-82.580981
 31
0.0
 12
96.881234
 22
-53.261006
 32
0.0
 13
105.713946
 23
-58.116839
 33
0.0
  0
SOLID
  8
SHADES
 62
   237
 39
0.1
 10
87.939678
 20
-82.580981
 30
0.0
 11
95.287297
 21
-89.480865
 31
0.0
 12
105.713946
 22
-58.116839
 32
0.0
 13
114.546658
 23
-62.972672
 33
0.0
  0
SOLID
  8
SHADES
 62
   239
 39
0.1
 10
95.287297
 20
-89.480865
 30
0.0
 11
102.634916
 21
-96.380749
 31
0.0
 12
114.546658
 22
-62.972672
 32
0.0
 13
123.379369
 23
-67.828505
 33
0.0
  0
SOLID
  8
SHADES
 62
   248
 39
0.1
 10
35.052252
 20
-19.270174
 30
0.0
 11
43.884964
 21
-24.126007
 31
0.0
 12
38.743319
 22
-9.947625
 32
0.0
 13
48.506131
 23
-12.454297
 33
0.0
  0
SOLID
  8
SHADES
 62
   246
 39
0.1
 10
43.884964
 20
-24.126007
 30
0.0
 11
52.717676
 21
-28.98184
 31
0.0
 12
48.506131
 22
-12.454297
 32
0.0
 13
58.268944
 23
-14.960969
 33
0.0
  0
SOLID
  8
SHADES
 62
   244
 39
0.1
 10
52.717676
 20
-28.98184
 30
0.0
 11
61.550388
 21
-33.837673
 31
0.0
 12
58.268944
 22
-14.960969
 32
0.0
 13
68.031756
 23
-17.467642
 33
0.0
  0
SOLID
  8
SHADES
 62
   242
 39
0.1
 10
61.550388
 20
-33.837673
 30
0.0
 11
70.383099
 21
-38.693506
 31
0.0
 12
68.031756
 22
-17.467642
 32
0.0
 13
77.794568
 23
-19.974314
 33
0.0
  0
SOLID
  8
SHADES
 62
   240
 39
0.1
 10
70.383099
 20
-38.693506
 30
0.0
 11
79.215811
 21
-43.549339
 31
0.0
 12
77.794568
 22
-19.974314
 32
0.0
 13
87.557381
 23
-22.480986
 33
0.0
  0
SOLID
  8
SHADES
 62
   241
 39
0.1
 10
79.215811
 20
-43.549339
 30
0.0
 11
88.048523
 21
-48.405173
 31
0.0
 12
87.557381
 22
-22.480986
 32
0.0
 13
97.320193
 23
-24.987658
 33
0.0
  0
SOLID
  8
SHADES
 62
   243
 39
0.1
 10
88.048523
 20
-48.405173
 30
0.0
 11
96.881234
 21
-53.261006
 31
0.0
 12
97.320193
 22
-24.987658
 32
0.0
 13
107.083006
 23
-27.49433
 33
0.0
  0
SOLID
  8
SHADES
 62
   245
 39
0.1
 10
96.881234
 20
-53.261006
 30
0.0
 11
105.713946
 21
-58.116839
 31
0.0
 12
107.083006
 22
-27.49433
 32
0.0
 13
116.845818
 23
-30.001002
 33
0.0
  0
SOLID
  8
SHADES
 62
   247
 39
0.1
 10
105.713946
 20
-58.116839
 30
0.0
 11
114.546658
 21
-62.972672
 31
0.0
 12
116.845818
 22
-30.001002
 32
0.0
 13
126.60863
 23
-32.507674
 33
0.0
  0
SOLID
  8
SHADES
 62
   249
 39
0.1
 10
114.546658
 20
-62.972672
 30
0.0
 11
123.379369
 21
-67.828505
 31
0.0
 12
126.60863
 22
-32.507674
 32
0.0
 13
136.371443
 23
-35.014347
 33
0.0
  0
LINE
  8
LINES
 62
     1
 10
38.743334
 20
9.947566
 30
0.0
 11
135.832617
 21
34.875778
 31
0.0
  0
LINE
  8
LINES
 62
     1
 10
35.052282
 20
19.27012
 30
0.0
 11
122.891933
 21
67.560289
 31
0.0
  0
LINE
  8
LINES
 62
     2
 10
29.158766
 20
27.381862
 30
0.0
 11
102.229496
 21
95.999739
 31
0.0
  0
LINE
  8
LINES
 62
     2
 10
21.433098
 20
33.773101
 30
0.0
 11
75.143604
 21
118.407173
 31
0.0
  0
LINE
  8
LINES
 62
     2
 10
12.360709
 20
38.042251
 30
0.0
 11
43.336163
 21
133.374648
 31
0.0
  0
LINE
  8
LINES
 62
     3
 10
2.511651
 20
39.921067
 30
0.0
 11
8.805752
 21
139.961704
 31
0.0
  0
LINE
  8
LINES
 62
     3
 10
-7.495223
 20
39.291496
 30
0.0
 11
-26.277958
 21
137.754451
 31
0.0
  0
LINE
  8
LINES
 62
     3
 10
-17.031144
 20
36.193095
 30
0.0
 11
-59.710526
 21
126.891579
 31
0.0
  0
LINE
  8
LINES
 62
     3
 10
-25.496936
 20
30.820549
 30
0.0
 11
-89.391263
 21
108.055643
 31
0.0
  0
LINE
  8
LINES
 62
     3
 10
-32.360662
 20
23.511435
 30
0.0
 11
-113.455217
 21
82.430173
 31
0.0
  0
LINE
  8
LINES
 62
     4
 10
-37.191048
 20
14.725011
 30
0.0
 11
-130.390364
 21
51.625312
 31
0.0
  0
LINE
  8
LINES
 62
     4
 10
-39.684584
 20
5.01336
 30
0.0
 11
-139.132604
 21
17.576643
 31
0.0
  0
LINE
  8
LINES
 62
     4
 10
-39.684592
 20
-5.013299
 30
0.0
 11
-139.132631
 21
-17.576431
 31
0.0
  0
LINE
  8
LINES
 62
     5
 10
-37.191071
 20
-14.724954
 30
0.0
 11
-130.390443
 21
-51.625113
 31
0.0
  0
LINE
  8
LINES
 62
     5
 10
-32.360698
 20
-23.511385
 30
0.0
 11
-113.455344
 21
-82.43
 31
0.0
  0
LINE
  8
LINES
 62
     5
 10
-25.496983
 20
-30.82051
 30
0.0
 11
-89.391428
 21
-108.055506
 31
0.0
  0
LINE
  8
LINES
 62
     5
 10
-17.031199
 20
-36.193069
 30
0.0
 11
-59.71072
 21
-126.891488
 31
0.0
  0
LINE
  8
LINES
 62
     5
 10
-7.495283
 20
-39.291484
 30
0.0
 11
-26.278168
 21
-137.754411
 31
0.0
  0
LINE
  8
LINES
 62
     6
 10
2.51159
 20
-39.921071
 30
0.0
 11
8.805537
 21
-139.961717
 31
0.0
  0
LINE
  8
LINES
 62
     6
 10
12.360651
 20
-38.04227
 30
0.0
 11
43.335959
 21
-133.374715
 31
0.0
  0
LINE
  8
LINES
 62
     6
 10
21.433046
 20
-33.773133
 30
0.0
 11
75.143423
 21
-118.407288
 31
0.0
  0
LINE
  8
LINES
 62
     6
 10
29.158724
 20
-27.381907
 30
0.0
 11
102.229349
 21
-95.999896
 31
0.0
  0
LINE
  8
LINES
 62
     6
 10
35.052252
 20
-19.270174
 30
0.0
 11
122.891829
 21
-67.560477
 31
0.0
  0
LINE
  8
LINES
 62
     6
 10
38.743319
 20
-9.947625
 30
0.0
 11
136.371443
 21
-35.014347
 31
0.0
  0
LINE
  8
LINES
 62
     1
 10
40.0
 20
-0.000031
 30
0.0
 11
140.794797
 21
-0.000108
 31
0.0
  0
POLYLINE
  8
LINES
 62
     1
 66
     1
 10
0.0
 20
0.0
 30
0.0
  0
VERTEX
  8
LINES
 62
     1
 10
29.158766
 20
27.381862
 30
0.0
  0
VERTEX
  8
LINES
 62
     1
 10
35.052282
 20
19.27012
 30
0.0
  0
VERTEX
  8
LINES
 62
     1
 10
38.743334
 20
9.947566
 30
0.0
  0
VERTEX
  8
LINES
 62
     1
 10
40.0
 20
-0.000031
 30
0.0
  0
SEQEND
  8
LINES
 62
     1
  0
POLYLINE
  8
LINES
 62
     2
 66
     1
 10
0.0
 20
0.0
 30
0.0
  0
VERTEX
  8
LINES
 62
     2
 10
2.511651
 20
39.921067
 30
0.0
  0
VERTEX
  8
LINES
 62
     2
 10
12.360709
 20
38.042251
 30
0.0
  0
VERTEX
  8
LINES
 62
     2
 10
21.433098
 20
33.773101
 30
0.0
  0
VERTEX
  8
LINES
 62
     2
 10
29.158766
 20
27.381862
 30
0.0
  0
SEQEND
  8
LINES
 62
     2
  0
POLYLINE
  8
LINES
 62
     3
 66
     1
 10
0.0
 20
0.0
 30
0.0
  0
VERTEX
  8
LINES
 62
     3
 10
-37.191048
 20
14.725011
 30
0.0
  0
VERTEX
  8
LINES
 62
     3
 10
-32.360662
 20
23.511435
 30
0.0
  0
VERTEX
  8
LINES
 62
     3
 10
-25.496936
 20
30.820549
 30
0.0
  0
VERTEX
  8
LINES
 62
     3
 10
-17.031144
 20
36.193095
 30
0.0
  0
VERTEX
  8
LINES
 62
     3
 10
-7.495223
 20
39.291496
 30
0.0
  0
VERTEX
  8
LINES
 62
     3
 10
2.511651
 20
39.921067
 30
0.0
  0
SEQEND
  8
LINES
 62
     3
  0
POLYLINE
  8
LINES
 62
     4
 66
     1
 10
0.0
 20
0.0
 30
0.0
  0
VERTEX
  8
LINES
 62
     4
 10
-37.191071
 20
-14.724954
 30
0.0
  0
VERTEX
  8
LINES
 62
     4
 10
-39.684592
 20
-5.013299
 30
0.0
  0
VERTEX
  8
LINES
 62
     4
 10
-39.684584
 20
5.01336
 30
0.0
  0
VERTEX
  8
LINES
 62
     4
 10
-37.191048
 20
14.725011
 30
0.0
  0
SEQEND
  8
LINES
 62
     4
  0
POLYLINE
  8
LINES
 62
     5
 66
     1
 10
0.0
 20
0.0
 30
0.0
  0
VERTEX
  8
LINES
 62
     5
 10
2.51159
 20
-39.921071
 30
0.0
  0
VERTEX
  8
LINES
 62
     5
 10
-7.495283
 20
-39.291484
 30
0.0
  0
VERTEX
  8
LINES
 62
     5
 10
-17.031199
 20
-36.193069
 30
0.0
  0
VERTEX
  8
LINES
 62
     5
 10
-25.496983
 20
-30.82051
 30
0.0
  0
VERTEX
  8
LINES
 62
     5
 10
-32.360698
 20
-23.511385
 30
0.0
  0
VERTEX
  8
LINES
 62
     5
 10
-37.191071
 20
-14.724954
 30
0.0
  0
SEQEND
  8
LINES
 62
     5
  0
POLYLINE
  8
LINES
 62
     6
 66
     1
 10
0.0
 20
0.0
 30
0.0
  0
VERTEX
  8
LINES
 62
     6
 10
38.743319
 20
-9.947625
 30
0.0
  0
VERTEX
  8
LINES
 62
     6
 10
35.052252
 20
-19.270174
 30
0.0
  0
VERTEX
  8
LINES
 62
     6
 10
29.158724
 20
-27.381907
 30
0.0
  0
VERTEX
  8
LINES
 62
     6
 10
21.433046
 20
-33.773133
 30
0.0
  0
VERTEX
  8
LINES
 62
     6
 10
12.360651
 20
-38.04227
 30
0.0
  0
VERTEX
  8
LINES
 62
     6
 10
2.51159
 20
-39.921071
 30
0.0
  0
SEQEND
  8
LINES
 62
     6
  0
LINE
  8
LINES
 62
     1
 10
36.506396
 20
34.281735
 30
0.0
 11
43.885001
 21
24.12594
 31
0.0
  0
LINE
  8
LINES
 62
     1
 10
43.885001
 20
24.12594
 30
0.0
 11
48.50615
 21
12.454223
 31
0.0
  0
LINE
  8
LINES
 62
     1
 10
48.50615
 20
12.454223
 30
0.0
 11
50.07948
 21
-0.000038
 31
0.0
  0
LINE
  8
LINES
 62
     2
 10
3.144555
 20
49.980657
 30
0.0
 11
15.475447
 21
47.628404
 31
0.0
  0
LINE
  8
LINES
 62
     2
 10
15.475447
 20
47.628404
 30
0.0
 11
26.833959
 21
42.283483
 31
0.0
  0
LINE
  8
LINES
 62
     2
 10
26.833959
 20
42.283483
 30
0.0
 11
36.506396
 21
34.281735
 31
0.0
  0
LINE
  8
LINES
 62
     3
 10
-46.562709
 20
18.435522
 30
0.0
 11
-40.515128
 21
29.436011
 31
0.0
  0
LINE
  8
LINES
 62
     3
 10
-40.515128
 20
29.436011
 30
0.0
 11
-31.921832
 21
38.586927
 31
0.0
  0
LINE
  8
LINES
 62
     3
 10
-31.921832
 20
38.586927
 30
0.0
 11
-21.322771
 21
45.313284
 31
0.0
  0
LINE
  8
LINES
 62
     3
 10
-21.322771
 20
45.313284
 30
0.0
 11
-9.383921
 21
49.192442
 31
0.0
  0
LINE
  8
LINES
 62
     3
 10
-9.383921
 20
49.192442
 30
0.0
 11
3.144555
 21
49.980657
 31
0.0
  0
LINE
  8
LINES
 62
     4
 10
-46.562737
 20
-18.43545
 30
0.0
 11
-49.684593
 21
-6.276585
 31
0.0
  0
LINE
  8
LINES
 62
     4
 10
-49.684593
 20
-6.276585
 30
0.0
 11
-49.684583
 21
6.276661
 31
0.0
  0
LINE
  8
LINES
 62
     4
 10
-49.684583
 20
6.276661
 30
0.0
 11
-46.562709
 21
18.435522
 31
0.0
  0
LINE
  8
LINES
 62
     5
 10
3.144478
 20
-49.980662
 30
0.0
 11
-9.383996
 21
-49.192427
 31
0.0
  0
LINE
  8
LINES
 62
     5
 10
-9.383996
 20
-49.192427
 30
0.0
 11
-21.32284
 21
-45.313252
 31
0.0
  0
LINE
  8
LINES
 62
     5
 10
-21.32284
 20
-45.313252
 30
0.0
 11
-31.921891
 21
-38.586878
 31
0.0
  0
LINE
  8
LINES
 62
     5
 10
-31.921891
 20
-38.586878
 30
0.0
 11
-40.515173
 21
-29.435949
 31
0.0
  0
LINE
  8
LINES
 62
     5
 10
-40.515173
 20
-29.435949
 30
0.0
 11
-46.562737
 21
-18.43545
 31
0.0
  0
LINE
  8
LINES
 62
     6
 10
48.506131
 20
-12.454297
 30
0.0
 11
43.884964
 21
-24.126007
 31
0.0
  0
LINE
  8
LINES
 62
     6
 10
43.884964
 20
-24.126007
 30
0.0
 11
36.506343
 21
-34.281791
 31
0.0
  0
LINE
  8
LINES
 62
     6
 10
36.506343
 20
-34.281791
 30
0.0
 11
26.833895
 21
-42.283524
 31
0.0
  0
LINE
  8
LINES
 62
     6
 10
26.833895
 20
-42.283524
 30
0.0
 11
15.475374
 21
-47.628427
 31
0.0
  0
LINE
  8
LINES
 62
     6
 10
15.475374
 20
-47.628427
 30
0.0
 11
3.144478
 21
-49.980662
 31
0.0
  0
LINE
  8
LINES
 62
     1
 10
43.854026
 20
41.181608
 30
0.0
 11
52.71772
 21
28.981759
 31
0.0
  0
LINE
  8
LINES
 62
     1
 10
52.71772
 20
28.981759
 30
0.0
 11
58.268967
 21
14.96088
 31
0.0
  0
LINE
  8
LINES
 62
     1
 10
58.268967
 20
14.96088
 30
0.0
 11
60.158959
 21
-0.000046
 31
0.0
  0
LINE
  8
LINES
 62
     2
 10
3.777458
 20
60.040247
 30
0.0
 11
18.590185
 21
57.214556
 31
0.0
  0
LINE
  8
LINES
 62
     2
 10
18.590185
 20
57.214556
 30
0.0
 11
32.234821
 21
50.793865
 31
0.0
  0
LINE
  8
LINES
 62
     2
 10
32.234821
 20
50.793865
 30
0.0
 11
43.854026
 21
41.181608
 31
0.0
  0
LINE
  8
LINES
 62
     3
 10
-55.934369
 20
22.146033
 30
0.0
 11
-48.669593
 21
35.360586
 31
0.0
  0
LINE
  8
LINES
 62
     3
 10
-48.669593
 20
35.360586
 30
0.0
 11
-38.346728
 21
46.353304
 31
0.0
  0
LINE
  8
LINES
 62
     3
 10
-38.346728
 20
46.353304
 30
0.0
 11
-25.614397
 21
54.433474
 31
0.0
  0
LINE
  8
LINES
 62
     3
 10
-25.614397
 20
54.433474
 30
0.0
 11
-11.27262
 21
59.093387
 31
0.0
  0
LINE
  8
LINES
 62
     3
 10
-11.27262
 20
59.093387
 30
0.0
 11
3.777458
 21
60.040247
 31
0.0
  0
LINE
  8
LINES
 62
     4
 10
-55.934403
 20
-22.145947
 30
0.0
 11
-59.684594
 21
-7.539871
 31
0.0
  0
LINE
  8
LINES
 62
     4
 10
-59.684594
 20
-7.539871
 30
0.0
 11
-59.684582
 21
7.539963
 31
0.0
  0
LINE
  8
LINES
 62
     4
 10
-59.684582
 20
7.539963
 30
0.0
 11
-55.934369
 21
22.146033
 31
0.0
  0
LINE
  8
LINES
 62
     5
 10
3.777366
 20
-60.040252
 30
0.0
 11
-11.27271
 21
-59.09337
 31
0.0
  0
LINE
  8
LINES
 62
     5
 10
-11.27271
 20
-59.09337
 30
0.0
 11
-25.614481
 21
-54.433434
 31
0.0
  0
LINE
  8
LINES
 62
     5
 10
-25.614481
 20
-54.433434
 30
0.0
 11
-38.346799
 21
-46.353246
 31
0.0
  0
LINE
  8
LINES
 62
     5
 10
-38.346799
 20
-46.353246
 30
0.0
 11
-48.669648
 21
-35.360512
 31
0.0
  0
LINE
  8
LINES
 62
     5
 10
-48.669648
 20
-35.360512
 30
0.0
 11
-55.934403
 21
-22.145947
 31
0.0
  0
LINE
  8
LINES
 62
     6
 10
58.268944
 20
-14.960969
 30
0.0
 11
52.717676
 21
-28.98184
 31
0.0
  0
LINE
  8
LINES
 62
     6
 10
52.717676
 20
-28.98184
 30
0.0
 11
43.853963
 21
-41.181675
 31
0.0
  0
LINE
  8
LINES
 62
     6
 10
43.853963
 20
-41.181675
 30
0.0
 11
32.234744
 21
-50.793914
 31
0.0
  0
LINE
  8
LINES
 62
     6
 10
32.234744
 20
-50.793914
 30
0.0
 11
18.590097
 21
-57.214585
 31
0.0
  0
LINE
  8
LINES
 62
     6
 10
18.590097
 20
-57.214585
 30
0.0
 11
3.777366
 21
-60.040252
 31
0.0
  0
LINE
  8
LINES
 62
     1
 10
51.201655
 20
48.081481
 30
0.0
 11
61.550439
 21
33.837579
 31
0.0
  0
LINE
  8
LINES
 62
     1
 10
61.550439
 20
33.837579
 30
0.0
 11
68.031783
 21
17.467537
 31
0.0
  0
LINE
  8
LINES
 62
     1
 10
68.031783
 20
17.467537
 30
0.0
 11
70.238439
 21
-0.000054
 31
0.0
  0
LINE
  8
LINES
 62
     3
 10
-65.306029
 20
25.856544
 30
0.0
 11
-56.824059
 21
41.285162
 31
0.0
  0
LINE
  8
LINES
 62
     3
 10
-56.824059
 20
41.285162
 30
0.0
 11
-44.771625
 21
54.119682
 31
0.0
  0
LINE
  8
LINES
 62
     3
 10
-44.771625
 20
54.119682
 30
0.0
 11
-29.906024
 21
63.553663
 31
0.0
  0
LINE
  8
LINES
 62
     3
 10
-29.906024
 20
63.553663
 30
0.0
 11
-13.161318
 21
68.994333
 31
0.0
  0
LINE
  8
LINES
 62
     3
 10
-13.161318
 20
68.994333
 30
0.0
 11
4.410362
 21
70.099836
 31
0.0
  0
LINE
  8
LINES
 62
     2
 10
4.410362
 20
70.099836
 30
0.0
 11
21.704922
 21
66.800709
 31
0.0
  0
LINE
  8
LINES
 62
     2
 10
21.704922
 20
66.800709
 30
0.0
 11
37.635683
 21
59.304247
 31
0.0
  0
LINE
  8
LINES
 62
     2
 10
37.635683
 20
59.304247
 30
0.0
 11
51.201655
 21
48.081481
 31
0.0
  0
LINE
  8
LINES
 62
     4
 10
-65.306069
 20
-25.856444
 30
0.0
 11
-69.684595
 21
-8.803157
 31
0.0
  0
LINE
  8
LINES
 62
     4
 10
-69.684595
 20
-8.803157
 30
0.0
 11
-69.684581
 21
8.803264
 31
0.0
  0
LINE
  8
LINES
 62
     4
 10
-69.684581
 20
8.803264
 30
0.0
 11
-65.306029
 21
25.856544
 31
0.0
  0
LINE
  8
LINES
 62
     5
 10
4.410254
 20
-70.099843
 30
0.0
 11
-13.161424
 21
-68.994313
 31
0.0
  0
LINE
  8
LINES
 62
     5
 10
-13.161424
 20
-68.994313
 30
0.0
 11
-29.906121
 21
-63.553617
 31
0.0
  0
LINE
  8
LINES
 62
     5
 10
-29.906121
 20
-63.553617
 30
0.0
 11
-44.771707
 21
-54.119613
 31
0.0
  0
LINE
  8
LINES
 62
     5
 10
-44.771707
 20
-54.119613
 30
0.0
 11
-56.824122
 21
-41.285075
 31
0.0
  0
LINE
  8
LINES
 62
     5
 10
-56.824122
 20
-41.285075
 30
0.0
 11
-65.306069
 21
-25.856444
 31
0.0
  0
LINE
  8
LINES
 62
     6
 10
68.031756
 20
-17.467642
 30
0.0
 11
61.550388
 21
-33.837673
 31
0.0
  0
LINE
  8
LINES
 62
     6
 10
61.550388
 20
-33.837673
 30
0.0
 11
51.201582
 21
-48.081559
 31
0.0
  0
LINE
  8
LINES
 62
     6
 10
51.201582
 20
-48.081559
 30
0.0
 11
37.635592
 21
-59.304304
 31
0.0
  0
LINE
  8
LINES
 62
     6
 10
37.635592
 20
-59.304304
 30
0.0
 11
21.70482
 21
-66.800742
 31
0.0
  0
LINE
  8
LINES
 62
     6
 10
21.70482
 20
-66.800742
 30
0.0
 11
4.410254
 21
-70.099843
 31
0.0
  0
LINE
  8
LINES
 62
     1
 10
58.549285
 20
54.981354
 30
0.0
 11
70.383158
 21
38.693399
 31
0.0
  0
LINE
  8
LINES
 62
     1
 10
70.383158
 20
38.693399
 30
0.0
 11
77.794599
 21
19.974195
 31
0.0
  0
LINE
  8
LINES
 62
     1
 10
77.794599
 20
19.974195
 30
0.0
 11
80.317919
 21
-0.000061
 31
0.0
  0
LINE
  8
LINES
 62
     2
 10
5.043265
 20
80.159426
 30
0.0
 11
24.81966
 21
76.386861
 31
0.0
  0
LINE
  8
LINES
 62
     2
 10
24.81966
 20
76.386861
 30
0.0
 11
43.036545
 21
67.814629
 31
0.0
  0
LINE
  8
LINES
 62
     2
 10
43.036545
 20
67.814629
 30
0.0
 11
58.549285
 21
54.981354
 31
0.0
  0
LINE
  8
LINES
 62
     3
 10
-74.67769
 20
29.567055
 30
0.0
 11
-64.978525
 21
47.209738
 31
0.0
  0
LINE
  8
LINES
 62
     3
 10
-64.978525
 20
47.209738
 30
0.0
 11
-51.196521
 21
61.886059
 31
0.0
  0
LINE
  8
LINES
 62
     3
 10
-51.196521
 20
61.886059
 30
0.0
 11
-34.197651
 21
72.673852
 31
0.0
  0
LINE
  8
LINES
 62
     3
 10
-34.197651
 20
72.673852
 30
0.0
 11
-15.050017
 21
78.895279
 31
0.0
  0
LINE
  8
LINES
 62
     3
 10
-15.050017
 20
78.895279
 30
0.0
 11
5.043265
 21
80.159426
 31
0.0
  0
LINE
  8
LINES
 62
     4
 10
-74.677735
 20
-29.566941
 30
0.0
 11
-79.684596
 21
-10.066444
 31
0.0
  0
LINE
  8
LINES
 62
     4
 10
-79.684596
 20
-10.066444
 30
0.0
 11
-79.68458
 21
10.066565
 31
0.0
  0
LINE
  8
LINES
 62
     4
 10
-79.68458
 20
10.066565
 30
0.0
 11
-74.67769
 21
29.567055
 31
0.0
  0
LINE
  8
LINES
 62
     5
 10
5.043143
 20
-80.159434
 30
0.0
 11
-15.050138
 21
-78.895256
 31
0.0
  0
LINE
  8
LINES
 62
     5
 10
-15.050138
 20
-78.895256
 30
0.0
 11
-34.197762
 21
-72.6738
 31
0.0
  0
LINE
  8
LINES
 62
     5
 10
-34.197762
 20
-72.6738
 30
0.0
 11
-51.196616
 21
-61.885981
 31
0.0
  0
LINE
  8
LINES
 62
     5
 10
-51.196616
 20
-61.885981
 30
0.0
 11
-64.978597
 21
-47.209638
 31
0.0
  0
LINE
  8
LINES
 62
     5
 10
-64.978597
 20
-47.209638
 30
0.0
 11
-74.677735
 21
-29.566941
 31
0.0
  0
LINE
  8
LINES
 62
     6
 10
77.794568
 20
-19.974314
 30
0.0
 11
70.383099
 21
-38.693506
 31
0.0
  0
LINE
  8
LINES
 62
     6
 10
70.383099
 20
-38.693506
 30
0.0
 11
58.549201
 21
-54.981444
 31
0.0
  0
LINE
  8
LINES
 62
     6
 10
58.549201
 20
-54.981444
 30
0.0
 11
43.036441
 21
-67.814695
 31
0.0
  0
LINE
  8
LINES
 62
     6
 10
43.036441
 20
-67.814695
 30
0.0
 11
24.819543
 21
-76.386899
 31
0.0
  0
LINE
  8
LINES
 62
     6
 10
24.819543
 20
-76.386899
 30
0.0
 11
5.043143
 21
-80.159434
 31
0.0
  0
LINE
  8
LINES
 62
     1
 10
65.896915
 20
61.881227
 30
0.0
 11
79.215878
 21
43.549218
 31
0.0
  0
LINE
  8
LINES
 62
     1
 10
79.215878
 20
43.549218
 30
0.0
 11
87.557415
 21
22.480852
 31
0.0
  0
LINE
  8
LINES
 62
     1
 10
87.557415
 20
22.480852
 30
0.0
 11
90.397399
 21
-0.000069
 31
0.0
  0
LINE
  8
LINES
 62
     2
 10
5.676169
 20
90.219016
 30
0.0
 11
27.934398
 21
85.973014
 31
0.0
  0
LINE
  8
LINES
 62
     2
 10
27.934398
 20
85.973014
 30
0.0
 11
48.437407
 21
76.325011
 31
0.0
  0
LINE
  8
LINES
 62
     2
 10
48.437407
 20
76.325011
 30
0.0
 11
65.896915
 21
61.881227
 31
0.0
  0
LINE
  8
LINES
 62
     3
 10
-84.04935
 20
33.277566
 30
0.0
 11
-73.132991
 21
53.134314
 31
0.0
  0
LINE
  8
LINES
 62
     3
 10
-73.132991
 20
53.134314
 30
0.0
 11
-57.621417
 21
69.652437
 31
0.0
  0
LINE
  8
LINES
 62
     3
 10
-57.621417
 20
69.652437
 30
0.0
 11
-38.489278
 21
81.794041
 31
0.0
  0
LINE
  8
LINES
 62
     3
 10
-38.489278
 20
81.794041
 30
0.0
 11
-16.938715
 21
88.796225
 31
0.0
  0
LINE
  8
LINES
 62
     3
 10
-16.938715
 20
88.796225
 30
0.0
 11
5.676169
 21
90.219016
 31
0.0
  0
LINE
  8
LINES
 62
     4
 10
-84.049401
 20
-33.277438
 30
0.0
 11
-89.684597
 21
-11.32973
 31
0.0
  0
LINE
  8
LINES
 62
     4
 10
-89.684597
 20
-11.32973
 30
0.0
 11
-89.684579
 21
11.329867
 31
0.0
  0
LINE
  8
LINES
 62
     4
 10
-89.684579
 20
11.329867
 30
0.0
 11
-84.04935
 21
33.277566
 31
0.0
  0
LINE
  8
LINES
 62
     5
 10
5.676031
 20
-90.219024
 30
0.0
 11
-16.938851
 21
-88.796199
 31
0.0
  0
LINE
  8
LINES
 62
     5
 10
-16.938851
 20
-88.796199
 30
0.0
 11
-38.489403
 21
-81.793982
 31
0.0
  0
LINE
  8
LINES
 62
     5
 10
-38.489403
 20
-81.793982
 30
0.0
 11
-57.621524
 21
-69.652349
 31
0.0
  0
LINE
  8
LINES
 62
     5
 10
-57.621524
 20
-69.652349
 30
0.0
 11
-73.133072
 21
-53.134202
 31
0.0
  0
LINE
  8
LINES
 62
     5
 10
-73.133072
 20
-53.134202
 30
0.0
 11
-84.049401
 21
-33.277438
 31
0.0
  0
LINE
  8
LINES
 62
     6
 10
87.557381
 20
-22.480986
 30
0.0
 11
79.215811
 21
-43.549339
 31
0.0
  0
LINE
  8
LINES
 62
     6
 10
79.215811
 20
-43.549339
 30
0.0
 11
65.89682
 21
-61.881328
 31
0.0
  0
LINE
  8
LINES
 62
     6
 10
65.89682
 20
-61.881328
 30
0.0
 11
48.43729
 21
-76.325085
 31
0.0
  0
LINE
  8
LINES
 62
     6
 10
48.43729
 20
-76.325085
 30
0.0
 11
27.934267
 21
-85.973056
 31
0.0
  0
LINE
  8
LINES
 62
     6
 10
27.934267
 20
-85.973056
 30
0.0
 11
5.676031
 21
-90.219024
 31
0.0
  0
LINE
  8
LINES
 62
     1
 10
73.244545
 20
68.7811
 30
0.0
 11
88.048597
 21
48.405038
 31
0.0
  0
LINE
  8
LINES
 62
     1
 10
88.048597
 20
48.405038
 30
0.0
 11
97.320231
 21
24.987509
 31
0.0
  0
LINE
  8
LINES
 62
     1
 10
97.320231
 20
24.987509
 30
0.0
 11
100.476878
 21
-0.000077
 31
0.0
  0
LINE
  8
LINES
 62
     2
 10
6.309072
 20
100.278605
 30
0.0
 11
31.049136
 21
95.559166
 31
0.0
  0
LINE
  8
LINES
 62
     2
 10
31.049136
 20
95.559166
 30
0.0
 11
53.838269
 21
84.835393
 31
0.0
  0
LINE
  8
LINES
 62
     2
 10
53.838269
 20
84.835393
 30
0.0
 11
73.244545
 21
68.7811
 31
0.0
  0
LINE
  8
LINES
 62
     3
 10
-93.42101
 20
36.988077
 30
0.0
 11
-81.287457
 21
59.058889
 31
0.0
  0
LINE
  8
LINES
 62
     3
 10
-81.287457
 20
59.058889
 30
0.0
 11
-64.046313
 21
77.418814
 31
0.0
  0
LINE
  8
LINES
 62
     3
 10
-64.046313
 20
77.418814
 30
0.0
 11
-42.780905
 21
90.91423
 31
0.0
  0
LINE
  8
LINES
 62
     3
 10
-42.780905
 20
90.91423
 30
0.0
 11
-18.827414
 21
98.697171
 31
0.0
  0
LINE
  8
LINES
 62
     3
 10
-18.827414
 20
98.697171
 30
0.0
 11
6.309072
 21
100.278605
 31
0.0
  0
LINE
  8
LINES
 62
     4
 10
-93.421067
 20
-36.987934
 30
0.0
 11
-99.684598
 21
-12.593016
 31
0.0
  0
LINE
  8
LINES
 62
     4
 10
-99.684598
 20
-12.593016
 30
0.0
 11
-99.684578
 21
12.593168
 31
0.0
  0
LINE
  8
LINES
 62
     4
 10
-99.684578
 20
12.593168
 30
0.0
 11
-93.42101
 21
36.988077
 31
0.0
  0
LINE
  8
LINES
 62
     5
 10
6.308919
 20
-100.278615
 30
0.0
 11
-18.827565
 21
-98.697142
 31
0.0
  0
LINE
  8
LINES
 62
     5
 10
-18.827565
 20
-98.697142
 30
0.0
 11
-42.781044
 21
-90.914165
 31
0.0
  0
LINE
  8
LINES
 62
     5
 10
-42.781044
 20
-90.914165
 30
0.0
 11
-64.046432
 21
-77.418716
 31
0.0
  0
LINE
  8
LINES
 62
     5
 10
-64.046432
 20
-77.418716
 30
0.0
 11
-81.287547
 21
-59.058765
 31
0.0
  0
LINE
  8
LINES
 62
     5
 10
-81.287547
 20
-59.058765
 30
0.0
 11
-93.421067
 21
-36.987934
 31
0.0
  0
LINE
  8
LINES
 62
     6
 10
97.320193
 20
-24.987658
 30
0.0
 11
88.048523
 21
-48.405173
 31
0.0
  0
LINE
  8
LINES
 62
     6
 10
88.048523
 20
-48.405173
 30
0.0
 11
73.244439
 21
-68.781212
 31
0.0
  0
LINE
  8
LINES
 62
     6
 10
73.244439
 20
-68.781212
 30
0.0
 11
53.838139
 21
-84.835475
 31
0.0
  0
LINE
  8
LINES
 62
     6
 10
53.838139
 20
-84.835475
 30
0.0
 11
31.04899
 21
-95.559214
 31
0.0
  0
LINE
  8
LINES
 62
     6
 10
31.04899
 20
-95.559214
 30
0.0
 11
6.308919
 21
-100.278615
 31
0.0
  0
LINE
  8
LINES
 62
     1
 10
80.592174
 20
75.680973
 30
0.0
 11
96.881316
 21
53.260858
 31
0.0
  0
LINE
  8
LINES
 62
     1
 10
96.881316
 20
53.260858
 30
0.0
 11
107.083048
 21
27.494166
 31
0.0
  0
LINE
  8
LINES
 62
     1
 10
107.083048
 20
27.494166
 30
0.0
 11
110.556358
 21
-0.000085
 31
0.0
  0
LINE
  8
LINES
 62
     2
 10
6.941976
 20
110.338195
 30
0.0
 11
34.163874
 21
105.145319
 31
0.0
  0
LINE
  8
LINES
 62
     2
 10
34.163874
 20
105.145319
 30
0.0
 11
59.23913
 21
93.345775
 31
0.0
  0
LINE
  8
LINES
 62
     2
 10
59.23913
 20
93.345775
 30
0.0
 11
80.592174
 21
75.680973
 31
0.0
  0
LINE
  8
LINES
 62
     3
 10
-102.792671
 20
40.698588
 30
0.0
 11
-89.441923
 21
64.983465
 31
0.0
  0
LINE
  8
LINES
 62
     3
 10
-89.441923
 20
64.983465
 30
0.0
 11
-70.47121
 21
85.185192
 31
0.0
  0
LINE
  8
LINES
 62
     3
 10
-70.47121
 20
85.185192
 30
0.0
 11
-47.072531
 21
100.03442
 31
0.0
  0
LINE
  8
LINES
 62
     3
 10
-47.072531
 20
100.03442
 30
0.0
 11
-20.716113
 21
108.598117
 31
0.0
  0
LINE
  8
LINES
 62
     3
 10
-20.716113
 20
108.598117
 30
0.0
 11
6.941976
 21
110.338195
 31
0.0
  0
LINE
  8
LINES
 62
     4
 10
-102.792733
 20
-40.698431
 30
0.0
 11
-109.684599
 21
-13.856302
 31
0.0
  0
LINE
  8
LINES
 62
     4
 10
-109.684599
 20
-13.856302
 30
0.0
 11
-109.684577
 21
13.85647
 31
0.0
  0
LINE
  8
LINES
 62
     4
 10
-109.684577
 20
13.85647
 30
0.0
 11
-102.792671
 21
40.698588
 31
0.0
  0
LINE
  8
LINES
 62
     5
 10
6.941807
 20
-110.338206
 30
0.0
 11
-20.716279
 21
-108.598085
 31
0.0
  0
LINE
  8
LINES
 62
     5
 10
-20.716279
 20
-108.598085
 30
0.0
 11
-47.072684
 21
-100.034347
 31
0.0
  0
LINE
  8
LINES
 62
     5
 10
-47.072684
 20
-100.034347
 30
0.0
 11
-70.47134
 21
-85.185084
 31
0.0
  0
LINE
  8
LINES
 62
     5
 10
-70.47134
 20
-85.185084
 30
0.0
 11
-89.442022
 21
-64.983328
 31
0.0
  0
LINE
  8
LINES
 62
     5
 10
-89.442022
 20
-64.983328
 30
0.0
 11
-102.792733
 21
-40.698431
 31
0.0
  0
LINE
  8
LINES
 62
     6
 10
107.083006
 20
-27.49433
 30
0.0
 11
96.881234
 21
-53.261006
 31
0.0
  0
LINE
  8
LINES
 62
     6
 10
96.881234
 20
-53.261006
 30
0.0
 11
80.592059
 21
-75.681097
 31
0.0
  0
LINE
  8
LINES
 62
     6
 10
80.592059
 20
-75.681097
 30
0.0
 11
59.238988
 21
-93.345866
 31
0.0
  0
LINE
  8
LINES
 62
     6
 10
59.238988
 20
-93.345866
 30
0.0
 11
34.163713
 21
-105.145371
 31
0.0
  0
LINE
  8
LINES
 62
     6
 10
34.163713
 20
-105.145371
 30
0.0
 11
6.941807
 21
-110.338206
 31
0.0
  0
LINE
  8
LINES
 62
     1
 10
87.939804
 20
82.580846
 30
0.0
 11
105.714035
 21
58.116677
 31
0.0
  0
LINE
  8
LINES
 62
     1
 10
105.714035
 20
58.116677
 30
0.0
 11
116.845864
 21
30.000823
 31
0.0
  0
LINE
  8
LINES
 62
     1
 10
116.845864
 20
30.000823
 30
0.0
 11
120.635838
 21
-0.000092
 31
0.0
  0
LINE
  8
LINES
 62
     2
 10
7.574879
 20
120.397785
 30
0.0
 11
37.278612
 21
114.731471
 31
0.0
  0
LINE
  8
LINES
 62
     2
 10
37.278612
 20
114.731471
 30
0.0
 11
64.639992
 21
101.856157
 31
0.0
  0
LINE
  8
LINES
 62
     2
 10
64.639992
 20
101.856157
 30
0.0
 11
87.939804
 21
82.580846
 31
0.0
  0
LINE
  8
LINES
 62
     3
 10
-112.164331
 20
44.4091
 30
0.0
 11
-97.596389
 21
70.908041
 31
0.0
  0
LINE
  8
LINES
 62
     3
 10
-97.596389
 20
70.908041
 30
0.0
 11
-76.896106
 21
92.951569
 31
0.0
  0
LINE
  8
LINES
 62
     3
 10
-76.896106
 20
92.951569
 30
0.0
 11
-51.364158
 21
109.154609
 31
0.0
  0
LINE
  8
LINES
 62
     3
 10
-51.364158
 20
109.154609
 30
0.0
 11
-22.604811
 21
118.499063
 31
0.0
  0
LINE
  8
LINES
 62
     3
 10
-22.604811
 20
118.499063
 30
0.0
 11
7.574879
 21
120.397785
 31
0.0
  0
LINE
  8
LINES
 62
     4
 10
-112.164399
 20
-44.408928
 30
0.0
 11
-119.6846
 21
-15.119588
 31
0.0
  0
LINE
  8
LINES
 62
     4
 10
-119.6846
 20
-15.119588
 30
0.0
 11
-119.684576
 21
15.119771
 31
0.0
  0
LINE
  8
LINES
 62
     4
 10
-119.684576
 20
15.119771
 30
0.0
 11
-112.164331
 21
44.4091
 31
0.0
  0
LINE
  8
LINES
 62
     5
 10
7.574695
 20
-120.397796
 30
0.0
 11
-22.604992
 21
-118.499028
 31
0.0
  0
LINE
  8
LINES
 62
     5
 10
-22.604992
 20
-118.499028
 30
0.0
 11
-51.364325
 21
-109.15453
 31
0.0
  0
LINE
  8
LINES
 62
     5
 10
-51.364325
 20
-109.15453
 30
0.0
 11
-76.896248
 21
-92.951452
 31
0.0
  0
LINE
  8
LINES
 62
     5
 10
-76.896248
 20
-92.951452
 30
0.0
 11
-97.596497
 21
-70.907892
 31
0.0
  0
LINE
  8
LINES
 62
     5
 10
-97.596497
 20
-70.907892
 30
0.0
 11
-112.164399
 21
-44.408928
 31
0.0
  0
LINE
  8
LINES
 62
     6
 10
116.845818
 20
-30.001002
 30
0.0
 11
105.713946
 21
-58.116839
 31
0.0
  0
LINE
  8
LINES
 62
     6
 10
105.713946
 20
-58.116839
 30
0.0
 11
87.939678
 21
-82.580981
 31
0.0
  0
LINE
  8
LINES
 62
     6
 10
87.939678
 20
-82.580981
 30
0.0
 11
64.639836
 21
-101.856256
 31
0.0
  0
LINE
  8
LINES
 62
     6
 10
64.639836
 20
-101.856256
 30
0.0
 11
37.278436
 21
-114.731528
 31
0.0
  0
LINE
  8
LINES
 62
     6
 10
37.278436
 20
-114.731528
 30
0.0
 11
7.574695
 21
-120.397796
 31
0.0
  0
LINE
  8
LINES
 62
     1
 10
95.287434
 20
89.480719
 30
0.0
 11
114.546754
 21
62.972497
 31
0.0
  0
LINE
  8
LINES
 62
     1
 10
114.546754
 20
62.972497
 30
0.0
 11
126.60868
 21
32.507481
 31
0.0
  0
LINE
  8
LINES
 62
     1
 10
126.60868
 20
32.507481
 30
0.0
 11
130.715317
 21
-0.0001
 31
0.0
  0
LINE
  8
LINES
 62
     2
 10
8.207782
 20
130.457374
 30
0.0
 11
40.39335
 21
124.317623
 31
0.0
  0
LINE
  8
LINES
 62
     2
 10
40.39335
 20
124.317623
 30
0.0
 11
70.040854
 21
110.366539
 31
0.0
  0
LINE
  8
LINES
 62
     2
 10
70.040854
 20
110.366539
 30
0.0
 11
95.287434
 21
89.480719
 31
0.0
  0
LINE
  8
LINES
 62
     3
 10
-121.535992
 20
48.119611
 30
0.0
 11
-105.750854
 21
76.832617
 31
0.0
  0
LINE
  8
LINES
 62
     3
 10
-105.750854
 20
76.832617
 30
0.0
 11
-83.321002
 21
100.717947
 31
0.0
  0
LINE
  8
LINES
 62
     3
 10
-83.321002
 20
100.717947
 30
0.0
 11
-55.655785
 21
118.274798
 31
0.0
  0
LINE
  8
LINES
 62
     3
 10
-55.655785
 20
118.274798
 30
0.0
 11
-24.49351
 21
128.400008
 31
0.0
  0
LINE
  8
LINES
 62
     3
 10
-24.49351
 20
128.400008
 30
0.0
 11
8.207782
 21
130.457374
 31
0.0
  0
LINE
  8
LINES
 62
     4
 10
-121.536065
 20
-48.119425
 30
0.0
 11
-129.684601
 21
-16.382874
 31
0.0
  0
LINE
  8
LINES
 62
     4
 10
-129.684601
 20
-16.382874
 30
0.0
 11
-129.684576
 21
16.383073
 31
0.0
  0
LINE
  8
LINES
 62
     4
 10
-129.684576
 20
16.383073
 30
0.0
 11
-121.535992
 21
48.119611
 31
0.0
  0
LINE
  8
LINES
 62
     5
 10
8.207583
 20
-130.457387
 30
0.0
 11
-24.493706
 21
-128.399971
 31
0.0
  0
LINE
  8
LINES
 62
     5
 10
-24.493706
 20
-128.399971
 30
0.0
 11
-55.655966
 21
-118.274713
 31
0.0
  0
LINE
  8
LINES
 62
     5
 10
-55.655966
 20
-118.274713
 30
0.0
 11
-83.321156
 21
-100.717819
 31
0.0
  0
LINE
  8
LINES
 62
     5
 10
-83.321156
 20
-100.717819
 30
0.0
 11
-105.750972
 21
-76.832455
 31
0.0
  0
LINE
  8
LINES
 62
     5
 10
-105.750972
 20
-76.832455
 30
0.0
 11
-121.536065
 21
-48.119425
 31
0.0
  0
LINE
  8
LINES
 62
     6
 10
126.60863
 20
-32.507674
 30
0.0
 11
114.546658
 21
-62.972672
 31
0.0
  0
LINE
  8
LINES
 62
     6
 10
114.546658
 20
-62.972672
 30
0.0
 11
95.287297
 21
-89.480865
 31
0.0
  0
LINE
  8
LINES
 62
     6
 10
95.287297
 20
-89.480865
 30
0.0
 11
70.040685
 21
-110.366646
 31
0.0
  0
LINE
  8
LINES
 62
     6
 10
70.040685
 20
-110.366646
 30
0.0
 11
40.393159
 21
-124.317685
 31
0.0
  0
LINE
  8
LINES
 62
     6
 10
40.393159
 20
-124.317685
 30
0.0
 11
8.207583
 21
-130.457387
 31
0.0
  0
LINE
  8
LINES
 62
     1
 10
102.635064
 20
96.380592
 30
0.0
 11
123.379473
 21
67.828316
 31
0.0
  0
LINE
  8
LINES
 62
     1
 10
123.379473
 20
67.828316
 30
0.0
 11
136.371496
 21
35.014138
 31
0.0
  0
LINE
  8
LINES
 62
     1
 10
136.371496
 20
35.014138
 30
0.0
 11
140.794797
 21
-0.000108
 31
0.0
  0
LINE
  8
LINES
 62
     2
 10
8.840686
 20
140.516964
 30
0.0
 11
43.508087
 21
133.903776
 31
0.0
  0
LINE
  8
LINES
 62
     2
 10
43.508087
 20
133.903776
 30
0.0
 11
75.441716
 21
118.876921
 31
0.0
  0
LINE
  8
LINES
 62
     2
 10
75.441716
 20
118.876921
 30
0.0
 11
102.635064
 21
96.380592
 31
0.0
  0
LINE
  8
LINES
 62
     3
 10
-130.907652
 20
51.830122
 30
0.0
 11
-113.90532
 21
82.757192
 31
0.0
  0
LINE
  8
LINES
 62
     3
 10
-113.90532
 20
82.757192
 30
0.0
 11
-89.745898
 21
108.484324
 31
0.0
  0
LINE
  8
LINES
 62
     3
 10
-89.745898
 20
108.484324
 30
0.0
 11
-59.947412
 21
127.394987
 31
0.0
  0
LINE
  8
LINES
 62
     3
 10
-59.947412
 20
127.394987
 30
0.0
 11
-26.382208
 21
138.300954
 31
0.0
  0
LINE
  8
LINES
 62
     3
 10
-26.382208
 20
138.300954
 30
0.0
 11
8.840686
 21
140.516964
 31
0.0
  0
LINE
  8
LINES
 62
     4
 10
-130.907731
 20
-51.829922
 30
0.0
 11
-139.684602
 21
-17.64616
 31
0.0
  0
LINE
  8
LINES
 62
     4
 10
-139.684602
 20
-17.64616
 30
0.0
 11
-139.684575
 21
17.646374
 31
0.0
  0
LINE
  8
LINES
 62
     4
 10
-139.684575
 20
17.646374
 30
0.0
 11
-130.907652
 21
51.830122
 31
0.0
  0
LINE
  8
LINES
 62
     5
 10
8.840471
 20
-140.516977
 30
0.0
 11
-26.38242
 21
-138.300914
 31
0.0
  0
LINE
  8
LINES
 62
     5
 10
-26.38242
 20
-138.300914
 30
0.0
 11
-59.947606
 21
-127.394895
 31
0.0
  0
LINE
  8
LINES
 62
     5
 10
-59.947606
 20
-127.394895
 30
0.0
 11
-89.746064
 21
-108.484187
 31
0.0
  0
LINE
  8
LINES
 62
     5
 10
-89.746064
 20
-108.484187
 30
0.0
 11
-113.905447
 21
-82.757018
 31
0.0
  0
LINE
  8
LINES
 62
     5
 10
-113.905447
 20
-82.757018
 30
0.0
 11
-130.907731
 21
-51.829922
 31
0.0
  0
LINE
  8
LINES
 62
     6
 10
136.371443
 20
-35.014347
 30
0.0
 11
123.379369
 21
-67.828505
 31
0.0
  0
LINE
  8
LINES
 62
     6
 10
123.379369
 20
-67.828505
 30
0.0
 11
102.634916
 21
-96.380749
 31
0.0
  0
LINE
  8
LINES
 62
     6
 10
102.634916
 20
-96.380749
 30
0.0
 11
75.441534
 21
-118.877037
 31
0.0
  0
LINE
  8
LINES
 62
     6
 10
75.441534
 20
-118.877037
 30
0.0
 11
43.507883
 21
-133.903843
 31
0.0
  0
LINE
  8
LINES
 62
     6
 10
43.507883
 20
-133.903843
 30
0.0
 11
8.840471
 21
-140.516977
 31
0.0
  0
LINE
  8
0
 39
0.2
 10
-266.197183
 20
-186.85446
 30
0.0
 11
266.197183
 21
-186.85446
 31
0.0
  0
LINE
  8
0
 39
0.2
 10
266.197183
 20
-186.85446
 30
0.0
 11
266.197183
 21
213.14554
 31
0.0
  0
LINE
  8
0
 39
0.2
 10
266.197183
 20
213.14554
 30
0.0
 11
-266.197183
 21
213.14554
 31
0.0
  0
LINE
  8
0
 39
0.2
 10
-266.197183
 20
213.14554
 30
0.0
 11
-266.197183
 21
-186.85446
 31
0.0
  0
TEXT
  8
TEXT
 62
    10
 39
0.1
 10
155.650844
 20
16.577595
 30
0.0
 40
7.6
  1
1X
  7
ROMANS
 72
     4
 11
163.431796
 21
20.377595
 31
0.0
  0
TEXT
  8
TEXT
 62
    20
 39
0.1
 10
146.102875
 20
56.062849
 30
0.0
 40
7.6
  1
2X
  7
ROMANS
 72
     4
 11
153.34097
 21
59.862849
 31
0.0
  0
TEXT
  8
TEXT
 62
    30
 39
0.1
 10
126.509488
 20
91.798116
 30
0.0
 40
7.6
  1
3X
  7
ROMANS
 72
     4
 11
133.747583
 21
95.598116
 31
0.0
  0
TEXT
  8
TEXT
 62
    40
 39
0.1
 10
98.644663
 20
121.538016
 30
0.0
 40
7.6
  1
4X
  7
ROMANS
 72
     4
 11
105.882758
 21
125.338016
 31
0.0
  0
TEXT
  8
TEXT
 62
    50
 39
0.1
 10
64.259251
 20
143.413882
 30
0.0
 40
7.6
  1
5X
  7
ROMANS
 72
     4
 11
71.497346
 21
147.213882
 31
0.0
  0
TEXT
  8
TEXT
 62
    60
 39
0.1
 10
25.33286
 20
156.051173
 30
0.0
 40
7.6
  1
6X
  7
ROMANS
 72
     4
 11
32.751908
 21
159.851173
 31
0.0
  0
TEXT
  8
TEXT
 62
    70
 39
0.1
 10
-15.157133
 20
158.655842
 30
0.0
 40
7.6
  1
7X
  7
ROMANS
 72
     4
 11
-7.919037
 21
162.455842
 31
0.0
  0
TEXT
  8
TEXT
 62
    80
 39
0.1
 10
-55.19808
 20
151.064228
 30
0.0
 40
7.6
  1
8X
  7
ROMANS
 72
     4
 11
-47.959985
 21
154.864228
 31
0.0
  0
TEXT
  8
TEXT
 62
    90
 39
0.1
 10
-92.09311
 20
133.75334
 30
0.0
 40
7.6
  1
9X
  7
ROMANS
 72
     4
 11
-84.855015
 21
137.55334
 31
0.0
  0
TEXT
  8
TEXT
 62
   100
 39
0.1
 10
-127.685877
 20
107.810884
 30
0.0
 40
7.6
  1
10X
  7
ROMANS
 72
     4
 11
-116.285877
 21
111.610884
 31
0.0
  0
TEXT
  8
TEXT
 62
   110
 39
0.1
 10
-151.677654
 20
74.86692
 30
0.0
 40
7.6
  1
11X
  7
ROMANS
 72
     4
 11
-140.277654
 21
78.66692
 31
0.0
  0
TEXT
  8
TEXT
 62
   120
 39
0.1
 10
-166.722855
 20
36.991439
 30
0.0
 40
7.6
  1
12X
  7
ROMANS
 72
     4
 11
-155.322855
 21
40.791439
 31
0.0
  0
TEXT
  8
TEXT
 62
   130
 39
0.1
 10
-171.876134
 20
-3.435703
 30
0.0
 40
7.6
  1
13X
  7
ROMANS
 72
     4
 11
-160.476134
 21
0.364297
 31
0.0
  0
TEXT
  8
TEXT
 62
   140
 39
0.1
 10
-166.813692
 20
-43.87432
 30
0.0
 40
7.6
  1
14X
  7
ROMANS
 72
     4
 11
-155.413692
 21
-40.07432
 31
0.0
  0
TEXT
  8
TEXT
 62
   150
 39
0.1
 10
-151.853621
 20
-81.783506
 30
0.0
 40
7.6
  1
15X
  7
ROMANS
 72
     4
 11
-140.453621
 21
-77.983506
 31
0.0
  0
TEXT
  8
TEXT
 62
   160
 39
0.1
 10
-127.935916
 20
-114.781286
 30
0.0
 40
7.6
  1
16X
  7
ROMANS
 72
     4
 11
-116.535916
 21
-110.981286
 31
0.0
  0
TEXT
  8
TEXT
 62
   170
 39
0.1
 10
-96.563416
 20
-140.79429
 30
0.0
 40
7.6
  1
17X
  7
ROMANS
 72
     4
 11
-85.163416
 21
-136.99429
 31
0.0
  0
TEXT
  8
TEXT
 62
   180
 39
0.1
 10
-59.70737
 20
-158.188023
 30
0.0
 40
7.6
  1
18X
  7
ROMANS
 72
     4
 11
-48.30737
 21
-154.388023
 31
0.0
  0
TEXT
  8
TEXT
 62
   190
 39
0.1
 10
-19.683579
 20
-165.869575
 30
0.0
 40
7.6
  1
19X
  7
ROMANS
 72
     4
 11
-8.283579
 21
-162.069575
 31
0.0
  0
TEXT
  8
TEXT
 62
   200
 39
0.1
 10
21.535973
 20
-163.356284
 30
0.0
 40
7.6
  1
20X
  7
ROMANS
 72
     4
 11
32.393115
 21
-159.556284
 31
0.0
  0
TEXT
  8
TEXT
 62
   210
 39
0.1
 10
60.309704
 20
-150.806071
 30
0.0
 40
7.6
  1
21X
  7
ROMANS
 72
     4
 11
71.166847
 21
-147.006071
 31
0.0
  0
TEXT
  8
TEXT
 62
   220
 39
0.1
 10
94.744176
 20
-129.00751
 30
0.0
 40
7.6
  1
22X
  7
ROMANS
 72
     4
 11
105.601319
 21
-125.20751
 31
0.0
  0
TEXT
  8
TEXT
 62
   230
 39
0.1
 10
122.675744
 20
-99.330287
 30
0.0
 40
7.6
  1
23X
  7
ROMANS
 72
     4
 11
133.532887
 21
-95.530287
 31
0.0
  0
TEXT
  8
TEXT
 62
   240
 39
0.1
 10
142.349365
 20
-63.639129
 30
0.0
 40
7.6
  1
24X
  7
ROMANS
 72
     4
 11
153.206508
 21
-59.839129
 31
0.0
  0
TEXT
  8
TEXT
 62
   250
 39
0.1
 10
152.528874
 20
-24.176644
 30
0.0
 40
7.6
  1
25X
  7
ROMANS
 72
     4
 11
163.386017
 21
-20.376644
 31
0.0
  0
TEXT
  8
TEXT
 39
0.1
 10
130.042212
 20
-19.692186
 30
0.0
 40
7.0
  1
9
 50
-7.199956
  7
ROMANS
 72
     4
 11
133.622573
 21
-16.61667
 31
0.0
  0
TEXT
  8
TEXT
 39
0.1
 10
119.955712
 20
-18.417972
 30
0.0
 40
7.0
  1
7
 50
-7.199956
  7
ROMANS
 72
     4
 11
123.701425
 21
-15.363345
 31
0.0
  0
TEXT
  8
TEXT
 39
0.1
 10
110.034564
 20
-17.164648
 30
0.0
 40
7.0
  1
5
 50
-7.199956
  7
ROMANS
 72
     4
 11
113.780277
 21
-14.110021
 31
0.0
  0
TEXT
  8
TEXT
 39
0.1
 10
100.113416
 20
-15.911323
 30
0.0
 40
7.0
  1
3
 50
-7.199956
  7
ROMANS
 72
     4
 11
103.859129
 21
-12.856696
 31
0.0
  0
TEXT
  8
TEXT
 39
0.1
 10
90.688325
 20
-14.720664
 30
0.0
 40
7.0
  1
1
 50
-7.199956
  7
ROMANS
 72
     4
 11
93.937981
 21
-11.603371
 31
0.0
  0
TEXT
  8
TEXT
 39
0.1
 10
80.27112
 20
-13.404673
 30
0.0
 40
7.0
  1
0
 50
-7.199956
  7
ROMANS
 72
     4
 11
84.016833
 21
-10.350046
 31
0.0
  0
TEXT
  8
TEXT
 39
0.1
 10
70.349972
 20
-12.151349
 30
0.0
 40
7.0
  1
2
 50
-7.199956
  7
ROMANS
 72
     4
 11
74.095685
 21
-9.096722
 31
0.0
  0
TEXT
  8
TEXT
 39
0.1
 10
60.263472
 20
-10.877135
 30
0.0
 40
7.0
  1
4
 50
-7.199956
  7
ROMANS
 72
     4
 11
64.174537
 21
-7.843397
 31
0.0
  0
TEXT
  8
TEXT
 39
0.1
 10
50.342324
 20
-9.62381
 30
0.0
 40
7.0
  1
6
 50
-7.199956
  7
ROMANS
 72
     4
 11
54.253389
 21
-6.590072
 31
0.0
  0
TEXT
  8
TEXT
 39
0.1
 10
40.586528
 20
-8.391374
 30
0.0
 40
7.0
  1
8
 50
-7.199956
  7
ROMANS
 72
     4
 11
44.332241
 21
-5.336747
 31
0.0
  0
TEXT
  8
TEXT
 62
   250
 39
0.1
 10
187.465626
 20
16.942994
 30
0.0
 40
8.0
  1
250
  7
ROMANS
 72
     4
 11
198.894197
 21
20.942994
 31
0.0
  0
TEXT
  8
TEXT
 62
   251
 39
0.1
 10
188.608483
 20
-0.199863
 30
0.0
 40
8.0
  1
251
  7
ROMANS
 72
     4
 11
198.894197
 21
3.800137
 31
0.0
  0
TEXT
  8
TEXT
 62
   252
 39
0.1
 10
187.465626
 20
-17.342721
 30
0.0
 40
8.0
  1
252
  7
ROMANS
 72
     4
 11
198.894197
 21
-13.342721
 31
0.0
  0
TEXT
  8
TEXT
 62
   253
 39
0.1
 10
187.465626
 20
-34.485578
 30
0.0
 40
8.0
  1
253
  7
ROMANS
 72
     4
 11
198.894197
 21
-30.485578
 31
0.0
  0
TEXT
  8
TEXT
 62
   254
 39
0.1
 10
187.27515
 20
-51.628435
 30
0.0
 40
8.0
  1
254
  7
ROMANS
 72
     4
 11
198.894197
 21
-47.628435
 31
0.0
  0
TEXT
  8
TEXT
 62
   255
 39
0.1
 10
187.465626
 20
-68.771292
 30
0.0
 40
8.0
  1
255
  7
ROMANS
 72
     4
 11
198.894197
 21
-64.771292
 31
0.0
  0
SOLID
  8
SHADES
 62
   250
 39
0.1
 10
217.680714
 20
13.759376
 30
0.0
 11
251.966428
 21
13.759376
 31
0.0
 12
217.680714
 22
25.187948
 32
0.0
 13
251.966428
 23
25.187948
 33
0.0
  0
SOLID
  8
SHADES
 62
   251
 39
0.1
 10
217.680714
 20
-3.383481
 30
0.0
 11
251.966428
 21
-3.383481
 31
0.0
 12
217.680714
 22
8.04509
 32
0.0
 13
251.966428
 23
8.04509
 33
0.0
  0
SOLID
  8
SHADES
 62
   252
 39
0.1
 10
217.680714
 20
-20.526338
 30
0.0
 11
251.966428
 21
-20.526338
 31
0.0
 12
217.680714
 22
-9.097767
 32
0.0
 13
251.966428
 23
-9.097767
 33
0.0
  0
SOLID
  8
SHADES
 62
   253
 39
0.1
 10
217.680714
 20
-37.669195
 30
0.0
 11
251.966428
 21
-37.669195
 31
0.0
 12
217.680714
 22
-26.240624
 32
0.0
 13
251.966428
 23
-26.240624
 33
0.0
  0
SOLID
  8
SHADES
 62
   254
 39
0.1
 10
217.680714
 20
-54.812052
 30
0.0
 11
251.966428
 21
-54.812052
 31
0.0
 12
217.680714
 22
-43.383481
 32
0.0
 13
251.966428
 23
-43.383481
 33
0.0
  0
SOLID
  8
SHADES
 62
   255
 39
0.1
 10
217.680714
 20
-71.95491
 30
0.0
 11
251.966428
 21
-71.95491
 31
0.0
 12
217.680714
 22
-60.526338
 32
0.0
 13
251.966428
 23
-60.526338
 33
0.0
  0
TEXT
  8
TEXT
 39
0.1
 10
188.14554
 20
-120.0
 30
0.0
 40
7.0
  1
Layers:
  7
ROMANS
  0
LINE
  8
TEXT
 39
0.1
 10
189.201878
 20
-128.638498
 30
0.0
 11
227.699531
 21
-128.638498
 31
0.0
  0
TEXT
  8
TEXT
 39
0.1
 10
188.14554
 20
-142.666667
 30
0.0
 40
7.0
  1
Lines
  7
ROMANS
  0
TEXT
  8
TEXT
 39
0.1
 10
188.14554
 20
-154.0
 30
0.0
 40
7.0
  1
Text
  7
ROMANS
  0
TEXT
  8
TEXT
 39
0.1
 10
188.14554
 20
-165.333333
 30
0.0
 40
7.0
  1
Shades
  7
ROMANS
  0
ENDSEC
  0
EOF
